Song name
# A B C D E F G H I J K L M N O P Q R S T U V W X Y Z

The Kooks - Kids tab

e|----------------2--4--2------------5---7---9-9-9-9-9--7--10--9--7--5-------|
B|---------2--5----------------5-5-------------------------------------------|
G|--2--4---------------------------------------------------------------------|
D|---------------------------------------------------------------------------|
A|---------------------------------------------------------------------------|
E|---------------------------------------------------------------------------|

e|---2-4--2-----------5--0----------5--0-----------5--0----------------------|
B|-------------5------------2-------------2------------22222-----22222-------|
G|-----------------------------------------------------22222-----22222-------|
D|---------------------------------------------------------------------------|
A|---------------------------------------------------------------------------|
E|---------------------------------------------------------------------------|

Tap to rate this tab
# A B C D E F G H I J K L M N O P Q R S T U V W X Y Z