Song name
# A B C D E F G H I J K L M N O P Q R S T U V W X Y Z

The Kooks - Is It Me tab

E|(12)-(12)--x-x-x-(12)---|(11)-----------------11---|
B|-12---12---x-x-x--12----|-11---x----x----x---(11)--|
G|-9----9----x-x-x---9----|-8----11--(8)--(8)--------|
D|-9----9------------9----|-8---(8)---11---8---------|
A|------------------------|--------------------------|
E|------------------------|--------------------------|

E|---------------------------------------------------|
B|-/11--11---11h12p11--9------9h11--9---11--12--14---|
G|------------------------11-------------------------|
D|---------------------------------------------------|
A|---------------------------------------------------|
E|---------------------------------------------------|

----------------------------------------
(0)-----0---0--------0-----0---------0--
------1---3--------3-----3-------3------
----2----------2/4-----4----------------
-----------------------------6----------
----------------------------------------


---------------------------|---------------------------|
----0------------------5---|-0----0----0---0---0---5---|
-3-----------------4---4---|-3----3----3---3---3---4---|
---------------6-------6---|-5----5----5---5---5---6---|
---------6/7-----------7---|-6----6----6---6---6---7---|
---------------------------|---------------------------|

------------------------------|
-----5---5---5----5---5---5---|
-----4---4---4----4---4---4---|
-----6---6---6----6---6---6---|
-----7---7---7----7---7---7---|
------------------------------|

E|------------------------------|---------------------------------|
B|-7----7---7---7---7---7---7---|-----7---7---7----7---7---7------|
G|-6----6---6---8---6---6---6---|-----6---6---6----6---6---6------|
D|-8----8---8---8---8---8---8---|-----8---8---8----8---8---8------|
A|-9----9---9---9---9---9---9---|-----9---9---9----9---9---9------|
E|------------------------------|---------------------------------|
Tap to rate this tab
# A B C D E F G H I J K L M N O P Q R S T U V W X Y Z