Song name
# A B C D E F G H I J K L M N O P Q R S T U V W X Y Z

The Kooks - Kids tab

this song is great, and i figured out a simpler way of playing, because i suck at bar 
chords. and the intro on the rest was a little bit off, so i fixed that.

Guitar 1: Standard
Guitar 2: Standard (Capo on 2)

Guitar 1

Intro:

e|---------------2--4-2--------------5--7--9--------9--7--10--9-7---5-------|
H|---------2--5----------5----------5---------------------------------------|
G|---2--4--------------------------6----------------------------------------|
D|--------------------------------7-----------------------------------------|
A|--------------------------------------------------------------------------|
E|--------------------------------------------------------------------------|

e|-------------------------5-----5------------------------------------------|
H|--5-5s7---9--7----5--------5-----6-------5-5-5---5-5-5--------------------|
G|-----------------------------6-----6-----6-6-6---6-6-6---4--4--2----------|
D|--------------------------------------------------------------------------|
A|--------------------------------------------------------------------------|
E|--------------------------------------------------------------------------|

Guitar 2


Em         C
You were a child
                 G               D
Crawling on your knees toward him
Em                C
  Making mamma so proud
G                         D
But your voice is too loud
Em                C            G  D
  We like to watch you laughing
Em                  C
Picking insects of plants
G                           D
  No time to think of consequences

Through the whole thing.

Guitar 1
e|---------------------5-7-9-7-5----5-9-10-9-7/4-5---7-4-5--------|
H|---0-----------------5------------------------------------------|
G|-2-------------------6------------------------------------------|
D|-----4----7-7-7-5----7------------------------------------------|
A|----------------------------------------------------------------|
E|----------------------------------------------------------------|

e|-9--9--9--9--9--9--10-9--12-12---------------5-5-5-5-5-5-4-2----|
H|-10-10-10-10-10-10-10-10-10-10------5-5-5----5-5-5-5-5-5-5-2----|
G|-9--9--9--9--9--9--9--9--9--9-------------2--6-6-6-6-6-6-4-2----|
D|---------------------------------------------7-7-7-7-7-7-6-4----|
A|---------------------------------------------7-7-7-7-7-7-7-4----|
E|---------------------------------------------5-5-5-5-5-5-4-2----|

Credit to the original people who tabbed these, i just did a couple of corrections. hope 
i helped :)
Tap to rate this tab
# A B C D E F G H I J K L M N O P Q R S T U V W X Y Z