Song name
# A B C D E F G H I J K L M N O P Q R S T U V W X Y Z

The Kooks - Kids tab

My version of mgmt kids by the kooks

capo fret 2

Guitar 1

Em, C, G, D

continue this throughout song

Guitar 2

E-0-----------------------------------------3--------2~~let ring~~--|
A-2~~let ring~~---------3~~let ring~~----3--------------------------|
D-2--------------------------------------------0--0-----------------|
G-0-------------2------------------------0--0-0--0---2---2-----2----|
B-----------------0-3---0----------------3--00--0----3--3-----3-----|
E-----------------------0-------------2-0------------2-2---2h3------|

Repeat Above x2

Then play through once last time but instead of

-------------          ------------------|
----3--------          ---3~~Let Ring~~~-|
-------------          ----------2-------|
----0--------   play   ---0---2-0--------| Then play the rest the same
----3--------          ---0--------------|
-------------          ------------------|


Hope you enjoy playing this and hope it helps.

let me know what you think at christery@hotmail.co.uk
Tap to rate this tab
# A B C D E F G H I J K L M N O P Q R S T U V W X Y Z