Song name
# A B C D E F G H I J K L M N O P Q R S T U V W X Y Z

The Kooks - Come On Down tab

-------------------------------------------------------------------------------
                             Come on Down - The Kooks
-------------------------------------------------------------------------------
Tabbed by: Popkiem

Tuning: Standard

Intro:
Em Bm Am C x 4

e|-----------------------------------------------------------------------------|
B|-------5h0-------5h0---5-----------------------------------------------------|
G|--7---------7--------7---7--7------------------------------------------------|
D|-----------------------------------7///9---7--5------5--------7///9--7--5----|
A|---------------------------------------------------7----7------------------7-|
E|------------------------------------------------------------------------------|


Em       Bm         Am           C    
 Come on down love, I've come to see you,
Em            Bm          Am            C    
 Cause I have found love, only when I'm with you,

A         C        A         C
 When I'm with you, when I'm with you,
A         C               G
 When I'm with you I feel fine,
           Em      D
 I lose my mind, I feel fine,

 Oh yes but you have the most beautiful,


Em Bm Am C x 2


Em         Bm       Am           C  
 So here I am love, I've come to be with you,
Em             Bm        Am           C  
 Because I get lost now, when I'm not around you,

A              C   A              C
 When I'm with you, when I'm with you,
A              C          G
 When I'm with you I feel fine,
           Em      D
 I lose my mind, I feel fine,

 Oh yes but you have the most wonderful,


Em Bm Am Am (only the base)x4
 Shalalala...
Em Bm Am Am x4

G C Em C?(or D?) x2

Em Bm Am C x 2

Em Bm Am C x 2 like intro

A         C        A         C
 When I'm with you, when I'm with you,
A         C               G
 When I'm with you I feel fine,
           Em      D
 I lose my mind, I feel fine,

 Oh yes and you have the most beautiful mind.

************************************

| /   slide up
| \   slide down
| h   hammer-on
| p   pull-off
| ~   vibrato
| +   harmonic
| x   Mute note
| b   Bend
| pb  Pre-bend
| br  Bend release
| pbr Pre-bend release
| brb Bend release bend

************************************
Tap to rate this tab
# A B C D E F G H I J K L M N O P Q R S T U V W X Y Z