Song name
# A B C D E F G H I J K L M N O P Q R S T U V W X Y Z

The Kooks - Jackie Big Tits tab

----------------------|
-11--11-11--11-11-11--|
-11--11-11--11-11-11--|
-11--11-11--11-11-11--|
-9---9--9\--8--8--8---|
----------------------|

--6--6-6---6--6-6-6/--7--7-7-7-7-7/--9---9--9--9--9--9--9--9--9---|
--7--7-7---6--6-6-6/--7--7-7-7-7-7/--9---9--9--9--9--9--9--9--9---|
--8--8-8---7--7-7-7/--8--8-8-8-8-8/--10--10-10-10-10-10-10-10-10--|
--8--8-8---8--8-8-8/--9--9-9-9-9-9/--11--11-11-11-11-11-11-11-11--|
--6--6-6---8--8-8-8/--9--9-9-9-9-9/--11--11-11-11-11-11-11-11-11--|
--6--6-6---6--6-6-6/--7--7-7-7-7-7/--9---9--9--9--9--9--9--9--9---|
Tap to rate this tab
 
# A B C D E F G H I J K L M N O P Q R S T U V W X Y Z