Song name
# A B C D E F G H I J K L M N O P Q R S T U V W X Y Z

The Kooks - Time Awaits tab

Intro:


e -------------------------------------------------------------|
B -------------------------------------------------------------|
G ---------5---3---------------------------3-------------------|
D -------------3----5----3--5--------------3--5-----3--5-------|
A ------5-------------5--------------3--5--------5-------------|
E -0--3-----------------------6---3-----------------------6--3-|

Time waits for no man but you
Time waits for no man but you
uhuuuu don't leave this town
uhuuuuuu don't leave this town

e|--------------------------------------------------------------------------|
B|-------7-7-7-7-----------------------------5-5-5-5------------------------|
G|-------8-8-8-8---play this twice and then--6-6-6-6---also twice-----------|
D|-------9-9-9-9-----------------------------7-7-7-7------------------------|
A|--------------------------------------------------------------------------|
E|--------------------------------------------------------------------------|

Verse:

e|--------7-x-7-x-7-x-7-x-5-x-5-x-5-x-5-------------------------------------|
B|--------7-x-7-x-7-x-7-x-7-x-7-x-7-x-7-------------------------------------|
G|--------7-x-7-x-7-x-7-x-7-x-7-x-7-x-7-------------------------------------|
D|--------------------------------------------------------------------------|
A|--------------------------------------------------------------------------|
E|--------------------------------------------------------------------------|

There we are
We're that in our hands
They tear you down
Cause they don't understand
You tried it once again
To love me better
She tore those panties down
Love me wetter

Chorus: Please listen to the song to get the rhytim. I noted only the chords.


e|--5---7---7---6---5---4--------3---7---7~---------------------------------|
B|--5---8---7---6---5---4--------3---8---7~---------------------------------|
G|--6---7---8---7---6---5--------4---7---7~---------------------------------|
D|--7---9---9---8---7---6--------5---9---9~---------------------------------|
A|--7---7---9---8---7---6--------5---7---9~---------------------------------|
E|--5-------7---6---5---4--------3-------7~---------------------------------|

Woo oh oh oh
And like ones and twos and threes and fours
Woo oh oh oh
And I hear you knocking at my door


Then back to the Verse:


e|--------7-x-7-x-7-x-7-x-5-x-5-x-5-x-5---------------------------------------|
B|--------7-x-7-x-7-x-7-x-7-x-7-x-7-x-7---------------------------------------|
G|--------7-x-7-x-7-x-7-x-7-x-7-x-7-x-7---------------------------------------|
D|----------------------------------------------------------------------------|
A|----------------------------------------------------------------------------|
E|----------------------------------------------------------------------------|


So hold them down
With blood on your hands
It's past the point
Where you don't understand
The worst you do is lie
Run for shelter
So cast aside these chains
Love me better

Chorus again:

e|--5---7---7---6---5---4--------3---7---7~---------------------------------|
B|--5---8---7---6---5---4--------3---8---7~---------------------------------|
G|--6---7---8---7---6---5--------4---7---7~---------------------------------|
D|--7---9---9---8---7---6--------5---9---9~---------------------------------|
A|--7---7---9---8---7---6--------5---7---9~---------------------------------|
E|--5-------7---6---5---4--------3-------7~---------------------------------|

Woo oh oh oh
And like ones and twos and threes and fours
Woo oh oh oh
And I hear you knocking at my door
Woo oh oh oh
And like ones and twos and threes and fours
Woo oh oh oh
And I hear you knocking at my door

Bridge: I'm still working on it :)

Solo:

e|------7--7--7--7-----------------------------7--7--7--7-------------------|
B|--------7--7--7--7--5----5--7----3x-----------7--7--7--7--5---5-----------|
G|----------------------7-------------------------------------7---7---------|
D|--------------------------------------------------------------------------|
A|--------------------------------------------------------------------------|
E|--------------------------------------------------------------------------|

e|-------7--7--7--7-----10fb------------------------------------------------|
B|---------7--7--7--7-------------------------------------------------------|
G|--------------------------------------------------------------------------|
D|--------------------------------------------------------------------------|
A|--------------------------------------------------------------------------|
E|--------------------------------------------------------------------------|

 ~  vibrato
 x  Mute note
Tap to rate this tab
# A B C D E F G H I J K L M N O P Q R S T U V W X Y Z