Song name
# A B C D E F G H I J K L M N O P Q R S T U V W X Y Z

The Kooks - Bus Song tab

Bus song

intro - AM - BM - AM - EM (high)

EM - BM - F*m - C*m - BM _ A - D - G - D - A///
.....................................all quick changes high postition

...........Am........*2....Dm............F..........G...
--5--5--5--5--5-------5--5--5--5----8-------10----------------------------|
--5--5--5--5--5-------6--6--6--5----10------12----------------------------|
--5--5--5--5--5-------7--7--7--5----10------12----------------------------|
--7--7--7--5--7-------7--7--7--5----10------12----------------------------|
--7--7--7--5--7-------5--7--7--5----8-------10----------------------------|
--5--5--5--5--5-----------------------------------------------------------|

Hughs - guitar
----5---------------|
-----------5--------|
-----------7^-------|
--------------------|
--------------------|
--------------------|

Varations of
Am - FM - Dm
Am - Dm - FM GM

Hugh Riff
----------------------------------------------|
----------------------------------------------|
----9--8--7------------9--8--7----------------|
-------------10--7---------------10-----------|
----------------------------------------------|
----------------------------------------------|
Tap to rate this tab
 
# A B C D E F G H I J K L M N O P Q R S T U V W X Y Z