Guitaretab - guitar tabs
Song name
# A B C D E F G H I J K L M N O P Q R S T U V W X Y Z

The Kooks - Naivewhole Song tab

-------------------------------------------------------------------------------
                             NAIVE - The Kooks
-------------------------------------------------------------------------------
dw about my name.... check this out for these chords in action by hugh the kooks
http://www.youtube.com/watch?v=IR3JIl8k-1g

the whole G#m1 and 2 is just a variation that you play at the start. Start with G#m and
before changing to E slide your 3rd finger down a string to make G#m2. Play it youll see
i mean, its optional so by all means take it out if you dont like it. By the way all the 
might not have their correct name! sorry.

Tuning:normal

Chords Used
       /-\
    G#m  G#m2  E  G#sus  B   B#2    E2    B#3   F#m
e|---4----4----4----6----x-----------------------2---------------------------|
B|---4----4----5----7----7----7------------4-----2---------------------------|
G|---4----6----4----6----8----8-----1------4-----2---------------------------|
D|---6----4----6----8----9----9-----2------4-----4---------------------------|
A|---6----6----7----9----9----9-----2------2-----4---------------------------|
E|---4----4----4----6----7----8------------------2---------------------------|


Studio Intro:

e|------------------------------------------------------------------|
B|----------------------------------9-x-----------------------------|
G|-----6-x-6-6-x-6-xxx----9-x-9-9-x-9-x--------6-xx-6-6-4-6-4-xxx---|
D|-----6-x-6-6-x-6-xxx-/9-9-x-9-9-x-9-x--------4-xx-4-4-4-4-4-xxx---|
A|----(6)--------------/7----------------------4-xx-----------------|
E|--4--------------------------------------4h6----------------------|

e|--------------------||
B|--------------------||
G|----8-xx-9-9-x-9-x--||
D|----9-xx-8-8-x-8-x--||
A|----9-xx-9-9-x-9-x--||
E|-/7-----------------||


Live Intro: G#m/G#m2 E  G#sus  B   B#2


Verse:

G#m                          E
I'm not saying it was your fault

                             G#sus
Although you could have done more

          B      B#2
Oh you're so naive yet so

--------------------------------------

G#m                 E
How could this be done

                        G#sus
Your such a smiling sweetheart

        B               B#2
Oh and your sweet and pretty face

------------------------------------------------

G#m
In such an ugly way

E               G#sus
Something so beautiful

         B            B#2
That everytime I look inside

----------------------------------------------------
Chorus chord structure= E  B#3  F#m..... each is only played once untill last line in
you strum into the verse.

-----------------------------------------------------------------
E                B#3           F#m
I know that she knows that I'm not fond of asking

E                B#3
True or false it may be

            F#m
She's still out to get me

--------------------------------------------------------

E                B#3           F#m
I know that she knows that I'm not fond of asking

E                B#3
True or false it may be

            F#m
She's still out to get me
-----------------------------------------------------

[ Tab from: http://www.guitaretab.com/t/the-kooks/99244.html ]
----------------------------------------------------

G#m                     E
I may say it was your fault

                             G#sus
Although you could have done more

          B      B#2
Oh you're so naive yet so

--------------------------------------

G#m                 E
How could this be done

                        G#sus
Your such a smiling sweetheart

        B               B#2
Oh and your sweet and pretty face

------------------------------------------------

G#m
In such an ugly way

E               G#sus
Something so beautiful

         B            B#2
That everytime I look inside

---------------------------------------------------------------------

E                B#3           F#m
I know that she knows that I'm not fond of asking

E                B#3
True or false it may be

            F#m
She's still out to get me

--------------------------------------------------------

E                B#3           F#m
I know that she knows that I'm not fond of asking

E                B#3
True or false it may be

            F#m
She's still out to get me
-----------------------------------------------------

-----------------------------------------------------

Bridge.. strum

E|---------------------------------------------------------||
B|---------------------------------------------------------||
G|--4---/6---/8---/9----/16-------4---/6---/8---/9----/11--||
D|--6---/8---/9---/11---/16-------6---/8---/9---/11---/11--||
A|---------------------------------------------------------||
E|---------------------------------------------------------||


-------------------------------------------------------

G#m                 E
How could this be done

                        G#sus
Your such a smiling sweetheart

        B               B#2
Oh and your sweet and pretty face

------------------------------------------------

G#m
In such an ugly way

E               G#sus
Something so beautiful

         B                B#2
And everytime your on his side

---------------------------------------------------------------------

E                B#3           F#m
I know that she knows that I'm not fond of asking

E                B#3
True or false it may be

            F#m
She's still out to get me

--------------------------------------------------------


E                B#3           F#m
I know that she knows that I'm not fond of asking

E                B#3
True or false it may be

            F#m
She's still out to get me
-----------------------------------------------------

Bridge chord structure: E  F#m  G#m  B#3

E  F#m  G#m  B#3


E  F#m  G#m  B#3
           Just don't let me down
           Just don't let me down

E       F#m     G#m
Hold on to your kite

B
Just don't let me down

E  F#m  G#m  B#3
           Just don't let me down

E       F#m     G#m
Hold on to your kite

B
Just don't let me down

B
Just don't let me down

... End on G#m (one strum)


| /  slide up
| \  slide down
| h  hammer-on
| p  pull-off
| ~  vibrato
| +  harmonic
| x  Mute note
=============================================================================
Related for Naivewhole Song tab
Advertisement will be closed in 10 seconds