The Kry - Only The Love Of God tab

ok quickly tabbed:
I dont have all the chords in the bridge 'cause I play the solo, but someone can figure it out.

intro:
G#m
-----------4------|
-------4----4-----|
------------------|
-4h6--------------| then playing the G#m shape
------------------|
------------------|

-4--------------|
-4--------------|
-4--6p4---------|
-6--4----6p4h6--|
-6--------6-----|
-4--------------|

Verse:
B F# C#m G#m F# E x2

Pre Chorus:
A A(maybe a variant but i dont know yet) B F#

Chorus:
B D#m G#m(7) E(7 fret) B/D# (like A/C# but at 6) F# x2

Bridge:
E D#m G#m F# E B (solo)...dont know the chords..then F# before going back to chorus

give me feedback since it was done quickly.
cdb_dave@hotmail.com

God bless
Tap to rate this tab
 
# A B C D E F G H I J K L M N O P Q R S T U V W X Y Z