Song name
# A B C D E F G H I J K L M N O P Q R S T U V W X Y Z

The Lashes - A Pretty Girl Is Like A Melody tab

Help us improve GuitareTab! Take a short survey!
-------------------------------------------------------------------------------
	       A pretty girl is like a melody - The Lashes
-------------------------------------------------------------------------------
Tabbed by:Mike www.myspace.com/rockondude2
Email:

Tuning:Standard
listen to song for strumming

Verse palm mute all these
e|-------------------------------------------------------------------------|
B|-------------------------------------------------------------------------|
G|-------------------------------------------------------------------------|
D|7----4----7-----4----7----4----7---4------------------------------------|
A|7----4----7-----4----7----4----7---4-------------------------------------|
E|5----2----5-----2----5----2----5---2-------------------------------------|

Pre-Chorus thing
no palm mute
e|-------------------------------------------------------------------------|
B|-------------------------------------------------------------------------|
G|--7----------------------------------------------------------------------|
D|--7--------7--------2----------------------------------------------------|
A|--5--------7--------2----------------------------------------------------|
E|-----------5--------0----------------------------------------------------|

Chorus
e|-------------------------------------------------------------------------|
B|-------------------------------------------------------------------------|
G|---------------------7-----9--------7---9--------------------------------|
D|-7---4-----7----4----7-----9---7----7---9---7-----3-------7--------------|
A|-7---4-----7----4----5-----7---7----5---7---7-----3-------7--------------|
E|-5---2-----5----2--------------5------------5-----1-------5--------------|

bridge
e|-------------------------------------------------------------------------|
B|-------------------------------------------------------------------------|
G|-------4-----6---7---9------7----------4--6--7--9-----7------------------|
D|-7-----4-----6---7---9---7--7---7---7--4--6--7--9--7--7--7--------------|
A|-7-----2-----4---5---7---7--5---7---7--2--4--5--7--7--5--7--------------|
E|-5-----------------------5------5---5--------------5-----5--------------|

e|-------------------------------------------------------------------------|
B|-------------------------------------------------------------------------|
G|------4--6---7----9---------7-------7------------------------------------|
D|--7---4--6---7----9----4----7---9---7---7--------------------------------|
A|--7---2--4---5----7----4----5---9---5---7--------------------------------|
E|--5--------------------2--------7-------5--------------------------------|

solo         those are 11's not 1's
e|------------------------------------------------------------------9~-----|
B|------101099-------------------------------------------------7/9---------|
G|-99~---------1111----99--------------------------------7/11-9------------|
D|-----------------11------1111--9--121111--------11-912-------------------|
A|----------------------------------------11111211-------------------------|
E|-------------------------------------------------------------------------|

Final Chorus
e|-------------------------------------------------------------------------|
B|-------------------------------------------------------------------------|
G|--------------------------------------------7--9-------7-----9-----------|
D|--7---4--7--4----7--4--7--4-----7--4--7--4--7--7---7---7-----9---7-------|
A|--7---4--7--4----7--4--7--4-----7--4--7--4--5--7---7---5-----7---7------|
E|--5---2--5--2----5--2--5--2-----5--2--5--2---------5-------------5-------|
P.M.-------------------------
e|-------------------------------------------------------------------------|
B|-------------------------------------------------------------------------|
G|-------------------------------------------------------------------------|
D|-3---7-----3---7--3333------7~-------------------------------------------|
A|-3---7-----3---7--3333------7~-------------------------------------------|
E|-1---5-----1---5--1111------5~-------------------------------------------|

Song Order
Verse
Pre-chorus
Chorus
Verse
Pre-chorus
Chorus
Bridge
Solo
Final Chorus

| /  slide up
| \  slide down
| h  hammer-on
| p  pull-off
| ~  vibrato
| +  harmonic
| x  Mute note
===============================================================================
Related for A Pretty Girl Is Like A Melody tab