Song name
# A B C D E F G H I J K L M N O P Q R S T U V W X Y Z

The Lashes - Sometimes The Sun tab

Order/Overview:
[Intro]
[Verse]
[Chorus]
[Pre-Verse]
[Verse]
[Chorus]
[Chorus]
[Bridge]
[Chorus]
[Outro]

[INTRO]
e|---------------|---------------|---------------|-----------------|
A|---------------|---------------|---------------|-----------------|
D|7-7-7-7-7-7-9-9|6-6-6-6-6-6----|6-6-6-6-6-6----|-----------------|  x 2
G|---------------|------------7-7|------------7-7|9-9-7-7----------|
B|---------------|---------------|---------------|--------9-9------|
E|---------------|---------------|---------------|------------10-10|

[VERSE]
e|---------------|---------------|---------------|-----------------|
A|---------------|---------------|---------------|-----------------|
D|7-----------/9-|6------------/6|---------------|-----------------|  x 2
G|---------------|------------7--|-------------7-|9-9-7-7----------|
B|---------------|---------------|---------------|--------9-9------|
E|---------------|---------------|---------------|------------10-10|
    It's been so long, since I've seen your face...

e|-----------------|---------------|--------------|---------------|
A|8-8-8-8-8-8-10-10|---------------|-----------7-7|---------------|
D|-----------------|9-9-9-9-9-9-9-9|9-9-9-9-9-9---|7-7-7-7-7-7-7-7|  x 2
G|-----------------|---------------|--------------|---------------|
B|-----------------|---------------|--------------|---------------|
E|-----------------|---------------|--------------|---------------|
    Sometimes we fight about...

[CHORUS]~ Guitar 1
e|---------------|---------------|----------------|---------------|
A|---------------|---------------|----------------|---------------|
D|---------------|---------------|/7-7-7-7-7-7-7-7|7-7-7-7-7-7-7-7|  x 2
G|5-5-5-5-5-5-5-5|5-5-5-5-5-5-5-5|/7-7-7-7-7-7-7-7|7-7-7-7-7-7-7-7|
B|5-5-5-5-5-5-5-5|5-5-5-5-5-5-5-5|/5-5-5-5-5-5-5-5|5-5-5-5-5-5-5-7|
E|3-3-3-3-3-3-3-3|3-3-3-3-3-3-3-3|----------------|---------------|
   Sometimes the sun goes down...

[CHORUS]~ Guitar 2 (with Guitar 1)
e|3--------------|---------------|2-------------|---------------|
A|3--------------|---------------|3-------------|---------------|
D|0--------------|---------------|2-------------|---------------|  x 2
G|0--------------|---------------|0-------------|---------------|
B|2--------------|---------------|--------------|---------------|
E|3--------------|---------------|--------------|---------------|
 (G maj)                         (D maj)

[PRE-VERSE] (you can just play the root note on these chords if you want)
e|---------------|---------------|---------------|---------------|
A|---------------|---------------|---------------|---------------|
D|7-7-7-7-7-7-7/6|--6-6-6-6-6-6-6|4-----------0-0|2--------------|  
G|7-7-7-7-7-7-7/6|--6-6-6-6-6-6-6|---------------|----4---2---0--|
B|5-5-5-5-5-5-5/4|--4-4-4-4-4-4-4|---------------|---------------|
E|---------------|---------------|---------------|---------------|

[BRIDGE]
Play both parts of the following riff four times:
e|---------------|     |-----------------|
A|---------------|     |-----------------|
D|6-6-6-6-6-6-6-6| x 2 |7---6---4---6-- 6|
G|6-6-6-6-6-6-6-6|     |7---6---4---6-7-6|
B|4-4-4-4-4-4-4-4|     |5---4---2---4-7-4|
E|---------------|     |--------------5--|
   Are you feeling just like me...

And on the last time add (to the end):
e|---------------|-----------------|
A|---------------|-----------------|
D|----7-7-7-7-7-7|7---6-6-6-6-6-6-6|
G|----7-7-7-7-7-7|7---6-6-6-6-6-6-6|
B|----5-5-5-5-5-5|5---4-4-4-4-4-4-4|
E|---------------|-----------------|

[OUTRO]
e|---------------|-------------|---------------|---------------|
A|---------------|-------------|---------------|---------------|
D|---------------|-------------|---------------|---------------|
G|5-5-5-5-5-5-5-5|5-5-5-5-5-5-5|4-4-4-4-4-4-4-4|4-4-4-4-4-4-4-4|
B|5-5-5-5-5-5-5-5|5-5-5-5-5-5-5|4-4-4-4-4-4-4-4|4-4-4-4-4-4-4-4|
E|3-3-3-3-3-3-3-3|3-3-3-3-3-3-3|2-2-2-2-2-2-2-2|2-2-2-2-2-2-2-2|
   I'm wondering which one you are watching..

e|---------------|---------------|     |---------------|     |-------------|
A|---------------|---------------|     |---------------|     |-------------|
D|---------------|---------------| x 2 |---------------| x 2 |-------------|
G|2-2-2-2-2-2-2-2|2-2-2-2-2-2-2-2|     |7-7-7-7-7-7-7-7|     |5------------|
B|2-2-2-2-2-2-2-2|2-2-2-2-2-2-2-2|     |7-7-7-7-7-7-7-7|     |5------------|
E|0-0-0-0-0-0-0-0|0-0-0-0-0-0-0-0|     |5-5-5-5-5-5-5-5|     |3------------|
   I'm wondering which one you...      I'm wondering...    ..now..
Tap to rate this tab
# A B C D E F G H I J K L M N O P Q R S T U V W X Y Z