Song name
# A B C D E F G H I J K L M N O P Q R S T U V W X Y Z

The Last Bison - Switzerland tab

Hi, I've noticed that there is no tabs for Last Bison yet so I'll be the first. I 
hope you enjoy this band as much as I do! Also this is for the acoustic.

                 Intro 2x
E |---0---0-----------------0-0--0-0----------------------|
B |---------------------------0----0----------------------|
E |---------------------------0----0----------------------|
G#|---------------------------0----0--------12--10---10--8|
B |----------------12---12--9~9--9~9--9--12--------9------|
e |--12--12--11--9----9-------0----0----------------------|

                Verse1 2x
E |---0---0-----------------0-0--0-0----------------------|
B |---------------------------0----0----------------------|
E |---------------------------0----0----------------------|
G#|---------------------------0----0--------12--10---10--8|
B |----------------12---12--9~9--9~9--9--12--------9------|
e |--12--12--11--9----9-------0----0----------------------|

We tried to sleep up in the banks of snow 
 But soon discovered it was far too cold 
 So we then retreated into town 
 To find a place where there was level ground 


     A   E  Pre-chorus 2x
E |--5---0--|
B |--0---0--|
E |--0---0--|
G#|--5---0--|
B |--0---0--|
e |--0---0--|

Oh, 
 Call home

          Chorus 2x  strummed   1x Mute the strings the first time through
E |--5----0---0---5----0---0--|--x--|  only.
B |--0----5---7---0----5---7--|--x--|
E |--0----0---0---0----0---0--|--x--|
G#|--5----3---7---5----3---7--|--x--|
B |--0----0---0---0----0---0--|--x--|
e |--0----0---0---0----0---0--|--x--|

Oh oh Switzerland 
 Youʼve taken way my breath now once again 
 Youʼve left me with a sense of compassion 
 For the ones who 
 Cant pick them selves up off the ground 

 Oh Switzerland 
 I never thought id have you as a friend 
 I'm praying it was not at all pretend 
 I need you now 
 To help pick me up from off the ground 


              Verse2 2x
E |---0---0-----------------0-0--0-0----------------------|
B |---------------------------0----0----------------------|
E |---------------------------0----0----------------------|
G#|---------------------------0----0--------12--10---10--8|
B |----------------12---12--9~9--9~9--9--12--------9------|
e |--12--12--11--9----9-------0----0----------------------|

Our drinks were hardly worth the price we paid 
 But we thanked God for them anyways and 
 With five minutes left we broke our backs 
 To spend more money than either of us had 


A   E  Pre-chorus 2x
E |--5---0--|
B |--0---0--|
E |--0---0--|
G#|--5---0--|
B |--0---0--|
e |--0---0--|

Oh, 
 Call home


      Chorus 2x  strummed        1x
E |--5----0---0---5----0---0--|--x--|  
B |--0----5---7---0----5---7--|--x--|
E |--0----0---0---0----0---0--|--x--|
G#|--5----3---7---5----3---7--|--x--|
B |--0----0---0---0----0---0--|--x--|
e |--0----0---0---0----0---0--|--x--|

Oh oh Switzerland 
 Youʼve taken way my breath now once again 
 Youʼve left me with a sense of compassion 
 For the ones who 
 Cant pick them selves up off the ground 

 Oh Switzerland 
 I never thought id have you as a friend 
 I'm praying it was not at all pretend 
 I need you now 
 To help pick me up from off the ground 

 Bridge 10-12x Depending on if you want to play with the banjo on 
E |--0--3h-0---0--0--|  the song. Plucked.
B |--3--0--3h--5--4--|
E |--0--0--0---0--0--|
G#|--0--0--0---0--0--|
B |--3--3--3---5--4--|
e |--0--0--0---0--0--|


E |---0---0-----------------0-|
B |-------------------------0-|
E |-------------------------0-|
G#|-------------------------0-|
B |----------------12---12--9~|
e |--12--12--11--9----9-----0-|
Tap to rate this tab
# A B C D E F G H I J K L M N O P Q R S T U V W X Y Z