Guitaretab - guitar tabs
Song name
# A B C D E F G H I J K L M N O P Q R S T U V W X Y Z

The Last Shadow Puppets - Only The Truth tab

song: Only the Truth
band: Last shadow puppets
standard tuning

This is the part that miles plays in the song.
NOTE: for this tab i followed their live version which in some parts may differ from the 
version, mainly its the studio version leaving certain bits out that the live version 
but i think ive tabbed almost everything that youll need.
enjoy! :)


Only the truth she reckons she holds.
E|----------------------------------|
B|----------------------------------|
G|----------------------------------|
D|----------------------------------|
A|----------------------------------|
E|-6-6-6-6--6-8-8-8-5---------------|

Only the truth she reckons she holds.
E|--------------------------------------|
B|--------------------------------------|
G|---------------------5-8^-8h9-5-------|
D|-------------------7------------5-7~--|
A|--------------------------------------|
E|-6-6-6-6--6-8-8-8---------------------|

VERSE 1
[The way she walks is scripted and taught
Don't give her an eye or she'll sniper your mind
You can see by her hands that she's been there before,
She lifts up her glass as if to bring down the mass]

all the above miles uses several different effects that im a bit uncertain of so if 
has an idea of what they are correct me plz :)
but playing along with the melody still works its the same as the second verse (see below)

Only the truth she reckons she holds.
E|-----------------------------------|
B|-----------------------------------|
G|------------------------5-8^-------|
D|-8-8-8-8~-8-10-10-10--7------------|
A|-----------------------------------|
E|-----------------------------------|

Only the truth she reckons she holds.
E|-------------------------------------------|
B|-------------------------------------------|
G|--------------------------5-8^-8h9-5-------|
D|-5-8-8-8-8--8-10-10-10--7------------5-7~--|
A|-------------------------------------------|
E|-------------------------------------------|

VERSE 2
Climbing the stairs as if to follow her prayers
Her golden laced boots may stop you right there.
E|------------------------|
B|------------------------|
G|------------------------|
D|-7-8-8-8-5-5-7-7-10-7---|
A|------------------------|
E|------------------------|
[ Tab from: http://www.guitaretab.com/t/the-last-shadow-puppets/108793.html ]
Hand on your arm as she greets all your friends,
E|------------------------|
B|------------------------|
G|------------------------|
D|-7-7-5-7--5-7-7-5-7-----|
A|------------------------|
E|------------------------|

Then with a twist of lime it seems a bitter end.
E|------------------------|
B|------------------------|
G|------------------------|
D|-7-8-8-8-5--5-5-7-5-7---|
A|------------------------|
E|------------------------|


Only the truth she reckons she holds.
E|------------------------------------------|
B|------------------------------------------|
G|--------------------------5-8^-8h9-5------|
D|-5-8-8-8-8--8-10-10-10--7------------5-7--|
A|------------------------------------------|
E|------------------------------------------|

Only the truth she reckons she holds.
E|--------------------------------|
B|--------------------------------|
G|--------------------------------|
D|-8-8-8-8--8-10-10-10--7\--------|
A|--------------------------------|
E|--------------------------------|

BRIDGE
The girl with many different strategies (play after line)
E|-8-8-5-5-5--8-8-5-5-5-------------|

Wakes the wolves to curse them to their knees (play after line)
E|-8-8-5-5-5--8-8-5-5-5-------------|

She's in the one by the riverbank so it's easier for
E|-8~~-6-8~-----------|

her to drown you.
E|-3~~-1-3~-----------|

And she claims, oh she claims.
E|-5~~-3-5~--8~~--5~~-------|

It's only the truth she holds in her hands
E|--------------------------------------|
B|--------------------------------------|
G|---------------------5-8^-8h9-5-------|
D|-------------------7------------5-----|
A|--------------------------------------|
E|-6-6-6-6--6-8-8-8---------------------|

It's only the truth she holds in her hands
E|--------------------------------|
B|--------------------------------|
G|--------------------------------|
D|-8-8-8-8--8-10-10-107~---------|
A|--------------------------------|
E|--------------------------------|

E|-----------------|
B|-----------------|
G|-----------------|
D|-8-5-7~----------|   x5
A|-----------------|
E|-----------------|

also I thought id tab the bit that the brass instruments play at the end as it makes it 
litle more exciting to end the song with:

E|------------------------|
B|--------------10--------|
G|------8-9-5-9----10-9---|
D|--7-7-------------------|   x2
A|------------------------|
E|------------------------|

E|----------|
B|----------|
G|--10-7-9--|
D|----------|  repeat until end
A|----------|
E|----------|
Related for Only The Truth tab