Song name
# A B C D E F G H I J K L M N O P Q R S T U V W X Y Z

The Last Shadow Puppets - I Dont Like You Anymore tab

Hello!
This is my first tab ever. Hope you like it!

Intro:

Guitar 1:

e|-2-|
B|-3-|
G|-4-|
D|-4-|
A|-2-|
E|---|

Guitar 2:

e|--2-0-2---3-0-2--|
B|---3---3---3---3-|
G|-4-------3-------|
D|-----------------|
A|-----------------|
E|-----------------|

Verse 1:

Guitar 1:

e|--2-0-2---3-0-2--|
B|---3---3---3---3-|
G|-4-------3-------|
D|-----------------|
A|-----------------|
E|-----------------|

Guitar 2:

e|-2-------3-------|
B|-3-------3-------|
G|-4-------3-------|
D|-----------------|
A|-----------------|
E|-----------------|

Chorus 1:

e|-222-222--222--4--8--|
B|-333-333--222--4--8--|
G|-444-444--444--6--10-|
D|-444-444--555--6--10-|
A|-222-222--555--4--8--|
E|----------333--------|

Verse 2:

Guitar 1:

e|--2-0-2---3-0-2--|
B|---3---3---3---3-|
G|-4-------3-------|
D|-----------------|
A|-----------------|
E|-----------------|

Guitar 2:

e|-2-------3-------|
B|-3-------3-------|
G|-4-------3-------|
D|-----------------|
A|-----------------|
E|-----------------|

Break:

e|-222--333--------|
B|-333--333--------|
G|-444--444--------|
D|-444--555--------|
A|-222--555--------|
E|------333--------|

Chorus 2:

e|-222-222--222--4--8--|
B|-333-333--222--4--8--|
G|-444-444--444--6--10-|
D|-444-444--555--6--10-|
A|-222-222--555--4--8--|
E|----------333--------|

Outro:

e|-22-22-44-8-8--|
B|-33-22-44-8-8--|
G|-44-44-66-1010-|
D|-44-55-66-1010-|
A|-22-55-44-8-8--|
E|----33---------|

Ends on:

e|-2-|
B|-3-|
G|-4-|
D|-4-|
A|-2-|
E|---|
Tap to rate this tab
 
# A B C D E F G H I J K L M N O P Q R S T U V W X Y Z