Song name
# A B C D E F G H I J K L M N O P Q R S T U V W X Y Z

The Last Shadow Puppets - Standing Next To Me tab

-------------------------------------------------------------------------------
			     STANDING NEXT TO ME - The Last Shadow Puppets
-------------------------------------------------------------------------------
Tabbed by: Fozza2008
Email: r.forest@hotmail.co.uk

Tuning: Standard


There are two versions for this solo the first one shown is the one on the album and the 
one is used live, both sound amazing.
feel free to comment :)


e|---------------------------------------------------------------------------|
B|---------------------------------------------------------------------------|
G|---------------------------------------------------------------------------|
D|---------------------------------------------------------------------------|
A|--------0---0--2--3-2---2--3--(3)/5---7---2/5---7---2--(2)/5--7-5-3-2-0----|
E|---------------------------------------------------------------------------|

e|-------------------------------------------------------------------------|
B|-------------------------------------------------------------------------|
G|-------------------------------------------------------------------------|
D|-------------------------------------------------------------------------|
A|-----0------0----2--3--2------2---3----5----3----3/5--5----7---5-------2-|
E|-------------------------------------------------------------------------|

Here Is The Alternate Version:

e|-5------------------------------------------------------|
B|-6------------------------------------------------------|
G|-7------------------------------------------------------|
D|-7----7--9--10--9----9--10--12--14--9-9-9--12--9-9-9----|
A|-5------------------------------------------------------|
E|--------------------------------------------------------|


e|------------------------------------------------------------------------|
B|------------------------------------------------------------------------|
G|---------------------------------9--7------------------9-7--------------|
D|-14--9-9-9--12--14-12-10------7----------7----9--10--9--------7--9--10--|
A|---------------------------10---------10-------------------10-----------|
E|------------------------------------------------------------------------|


e|---------------------------------------------------------5------|
B|---------------------------------------------------------5------|
G|---------------------------------------------------------5------|
D|---------------------12--14--12--12-12-12-12--9--9-9-7---7------|
A|-14--14-14-14-14-----------------------------------------7------|
E|---------------------------------------------------------5------|


Great Song By A Great Band :D
Tap to rate this tab
 
# A B C D E F G H I J K L M N O P Q R S T U V W X Y Z