Song name
# A B C D E F G H I J K L M N O P Q R S T U V W X Y Z

The Last Shadow Puppets - Hang The Cyst tab

This is my first tab, so bear with me;)


Note: I've seen these guys play live, which was wonderful.
This is a Miles song, because he does the main vocals and
guitar solo's. Damn shame this tune didn't make it on the
album.

(My tab is based on the live version of the song)

Intro:

(note: the studio version has a xylophone playing this part)

e|-----------5-5-6-6-6-5---------|
B|----6-5-6--------------6-5-----|
G|6-7------------------------6-7-|
D|-------------------------------|
A|-------------------------------|
E|-------------------------------|

"Was he badly mistaken or guided":

**There's only a bass guitar playing this part**


G|------------------------------------|
D|------------------------------------|
A|0-5----0-5----0----------------5----|
E|----------------6----6---8-6-5------| repeat


After "His bitter sweetness"

Miles does some muted strummings (listen to the track for the rythm)

e|XXX-XXX-XXX-XXX
B|XXX-XXX-XXX-XXX
G|XXX-XXX-XXX-XXX
D|XXX-XXX-XXX-XXX
A|XXX-XXX-XXX-XXX
E|XXX-XXX-XXX-XXX

'Your a broken fence, in the yard of annoyance'

G|------------------|
D|------------------|
A|--------------5---|
E|6---6---8-6-5-----|  2X

"Annooooyaaaance"            "Annooooyaaaance"
e|------------------------------------------------------------|
B|1010101010105-5-5-5-5-5-6~--1010101010105-5-5-5-5-5-6x6-66--|
G|1010101010105-5-5-5-5-5-7~--1010101010105-5-5-5-5-5-7x7-77--|
D|1010101010105-5-5-5-5-5-7~--1010101010105-5-5-5-5-5-7x7-77--|
A|8-8-8-8-8-8-3-3-3-3-3-3-5~--8-8-8-8-8-8-3-3-3-3-3-3-5x5-55--|
E|------------------------------------------------------------|

"Hang the cyst"

  hang the  cyst
e|----------------------|
B|1010-5-5--6-6-x-6-6---|
G|1010-5-5--7-7-x-7-7---|
D|1010-5-5--7-7-x-7-7---|
A|8-8--3-3--5-5-x-5-5---|
E|----------------------|  repeat until the last time:

  Hang the  cyssst~~
e|---------------|
B|1010-5-5--7----|
G|1010-5-5--7----|
D|1010-5-5--8----|
A|8-8--3-3--8----|
E|----------6----|


Solo:

(Note: played by Miles and first half backing xylophone)


e|0-5---0-5-6-5---5-------------------------------5-5-6-6-6-5------------------|
B|--------------8---8~~-6-8-6-5-6-5--------6-5-6--------------6-5-----~--------|
G|------------------------------------~6-7------------------------6-7~~~~5-7~~-|
D|-----------------------------------------------------------------------------|
A|-----------------------------------------------------------------------------|
E|-----------------------------------------------------------------------------|

(note: xylophone stops here, guitar continues)

e|5-6-5~~---5--------5------------------------------------------~-------|
B|--------8---8-6~~~---6-5-------------------6-66/88--------------------|
G|-------------------------7~~--5-7----5-777---------7--5/7~~-----------|
D|----------------------------------------------------------------------|
A|----------------------------------------------------------------------|
E|----------------------------------------------------------------------|

after the solo back to:

e|------------------------------------------------------------|
B|1010101010105-5-5-5-5-5-6~--1010101010105-5-5-5-5-5-6x6-66--|
G|1010101010105-5-5-5-5-5-7~--1010101010105-5-5-5-5-5-7x7-77--|
D|1010101010105-5-5-5-5-5-7~--1010101010105-5-5-5-5-5-7x7-77--|
A|8-8-8-8-8-8-3-3-3-3-3-3-5~--8-8-8-8-8-8-3-3-3-3-3-3-5x5-55--|
E|------------------------------------------------------------|

Then Miles kicks in:

(I have no idea what he says here, but this is the rythm)

The  first time in pace or in math
He   escaped inthe shock---- snap)
e|----------------------------------|
B|---6-------------6---------6------|
G|---7-------------7---------7------|
D|---7-------------7---------7------|
A|---5-------------5---------5------|
E|----------------------------------|


was is the size of his wilting noose
       His wonderful   vanishingact
e|----------------------------------|
B|---------6-----------6-------6----|
G|---------7-----------7-------7----|
D|---------7-----------7-------7----|
A|---------5-----------5-------5----|
E|----------------------------------|
And the chance    will soon reduce to an angry silence
Was a   spectacle  but not whtanyone     expected
e|-------------------------------------------------------|
B|------6--------------6-------6------------6--6--66666--|
G|------7--------------7-------7------------7--7--77777--|
D|------8--------------8-------8------------8--7--77777--|
A|------8--------------8-------8------------8--5--55555--|
E|------6--------------6-------6------------6------------|

The     route was      planned as much as the broachpin dagger

e|---------------------------------------------------------|
B|------6--------------6----------6------------6--6--66666-|
G|------7--------------7----------7------------7--7--77777-|
D|------8--------------8----------8------------8--7--77777-|
A|------8--------------8----------8------------8--5--55555-|
E|------6--------------6----------6------------6-----------|


The     route was      planned------ as much as the broachpin

e|---------------------------------|
B|------6-(soft strum)-------------|
G|------7--------------------------|
D|------8--------------------------|
A|------8--------------------------|
E|------6--------------------------|


  Daaaaaaaahaaaaaaagger
e|----------------------------|
B|1010101010105-5-5-5-5-5-6~--|
G|1010101010105-5-5-5-5-5-7~--|
D|1010101010105-5-5-5-5-5-7~--|
A|8-8-8-8-8-8-3-3-3-3-3-3-5~--|
E|----------------------------|

  hang the  cyst
e|----------------------|
B|1010-5-5--6-6-x-6-6---|
G|1010-5-5--7-7-x-7-7---|
D|1010-5-5--7-7-x-7-7---|
A|8-8--3-3--5-5-x-5-5---|
E|----------------------|

---Then up comes a instrumental parts which I'm figuring out this very second----

Please leave comments
Tap to rate this tab
 
# A B C D E F G H I J K L M N O P Q R S T U V W X Y Z