Song name
# A B C D E F G H I J K L M N O P Q R S T U V W X Y Z

The Last Shadow Puppets - The Age Of The Understatement tab

I suppose it's right, but if there will be any questions, please, write me.

tabbed by ol-liver (olliver61292@gmail.com)

This solo is for chords version tabbed by Nicolas Levy 

INTRO:

e ---------------------------------|---------------------------------|
b ---------------------------------|---------------------------------|
g ---------------------------------|----------------------------2-4~-|
d ---------------------------------|---------------------------------|
a -2---4---5--7-10-9--9-10-9---5-4-|2---4---5--7--9-10-9--10-9-------|
E ---------------------------------|---------------------------------|

VERSE 1:

...But they suspected it was false | Move away from the parade...

e ---------------------------------|---------------------------------|
b ---------------------------------|---------------------------------|
g --------2-4~---------------------|---------------------------------|
d ---------------------------------|---------------------------------|
a --5------------------------------|--5------------------------------|
E -----2---------------------------|-----2---------------------------|

BRIDGE 1:

And she was walking on the tables  | ...little tragedies begin...

e -----------|     |------------------------14-14-15-15-14-14-|------|
b -----------|     |------14-14-15-15-17-17-------------------|------|
g -----------|     |--16--------------------------------------|-2--4~|
d -----------| X3  |------------------------------------------|------|
a ---------2-|     |------------------------------------------|------|
E --3---2----|     |------------------------------------------|------|

e -------------------------------------------------------------------|
b ---------------9--10-----------------------------------------------|
g ------11--------------10-11-10------------10~----------------------|
d ---9-----12---------------------12--7--9---------------------------|
a -------------------------------------------------------------------|
E -------------------------------------------------------------------|


And she would throw a feather boa...|
e -----------------|     |------------------------14-14-15-15-14-14-|
b -----------------|     |------14-14-15-15-17-17-------------------|
g -----------------|     |--16--------------------------------------|
d -----------------| X3  |------------------------------------------|
a ---------2---0-2~|     |------------------------------------------|
E --3---2----------|     |------------------------------------------|

CHORUS:

And there's affection to rent The age of the understatement

e ---------------------------------|---------------------------------|
b ---------------------------------|---------------------------------|
g ---------------------------------|---------------------------------|
d ---------------------------------|---------------------------------| X2
a -2--4--5---7--10-9--9-10-9---5-4-|2---4---5---7--10-9--9-10-9------|
E ---------------------------------|---------------------------------|

BRIDGE 2:

Ahhhhhhhhhhhhhh X2          And my fingers scratch at my hair...

e --------------------|    |-------------|     
b --------------------|    |-------------|    
g --------------------|    |-------------|     
d --------------------| X2 |-------------| X4  
a ------------2-------|    |-----------2-|     
E ---3--2--2----------|    |---3--2--2---|     

Ahhhhhhhhhhhhh X2 - PAUSE

OUTRO:

e -------------------------------------------------------------------|
b ---------------9--10-----------------------------------------------|
g ------11--------------10-11-10------------10~----------------------|
d ---9-----12---------------------12--7--9---------------------------|
a -------------------------------------------------------------------|
E -------------------------------------------------------------------|

e ---------------------|
b ---------------------|
g ---------------------|
d ---------------------|
a 2---4---5--7---10-9--|
E ---------------------|


26.12.2009



Tap to rate this tab
 
# A B C D E F G H I J K L M N O P Q R S T U V W X Y Z