The Last Shadow Puppets - Paris Summer tab

Intro
e|-------------------------------|
B|-------------------------------|
G|-------------------------------|
D|-------------------------------|
A|-------------------------------|
E|-5-------5--5-7-8-10-8-7-5-3s5-|

Verse
e|--------------------------------|
B|--------------------------------|
G|--------------------------------|
D|--------------------------------|
A|-----------------------------/5-|
E|---------5--5-7-8-10-8-7-5-3----|

e|--------------------|
B|----------------5---|
G|----------------5---|
D|----------------7---|
A|----------------7---|
E|--------------------|

e|---------------|
B|-----8----5----|
G|-----9----5----|
D|-----9----7----|x2
A|-----7----7----|
E|---------------|

Chorus
e|----------------------------------------------------------|
B|----------------------------------------------------------|
G|----------------------------------------------------------|
D|--------------------------7--5-3-3h5p3-2--2-2/3-4h3-3-3/2-|
A|-----------7-----5--5-7-8---------------------------------|
E|--5--5-7-8------------------------------------------------|

Verse 2
e|--------------------------------------------|
B|----------------------------------------5---|
G|----------------------------------------5---|
D|----------------------------------------7---|
A|---------------------------------/5-----7---|
E|-----5-------5--5-7-8-10-8-7-5-3------------|

e|---------------------------------------------|
B|------------------------------------------5--|
G|------------------------------------------5--|
D|------------------------------------------7--|
A|--------------------5-7--------------5-7--7--|
E|--5--5-7-8-10-8-7-5------8s5---8-7-5---------|

Chorus
e|----------------------------------------------------------|
B|----------------------------------------------------------|
G|----------------------------------------------------------|
D|--------------------------7--5-3-3h5p3-2--2-2/3-4h3-3-3/2-|
A|-----------7---7-5--5-7-8---------------------------------|
E|--5--5-7-8------------------------------------------------|

Verse 3
e|----------------------------------------|
B|-------------------------------------5--|
G|-------------------------------------5--|
D|-------------------------------------7--|
A|---------------------------5h7p5-----7--|
E|--5-----5--5-7-8-10-8-7-5---------------|

e|---------------|
B|-----8----5----|
G|-----9----5----|
D|-----9----7----|x2
A|-----7----7----|
E|---------------|

Chorus
e|----------------------------------------------------------|
B|----------------------------------------------------------|
G|----------------------------------------------------------|x3
D|--------------------------7--5-3-3h5p3-2--2-2/3-4h3-3-3/2-|
A|-----------7---7-5--5-7-8---------------------------------|
E|--5--5-7-8------------------------------------------------|

e|----------------------------------------------------------|
B|----------------------------------------------------------|
G|----------------------------------------------------------|
D|--------------------------7--5-3-3h5p3-2------------------|
A|-----------7-----5--5-7-8---------------------------------|
E|--5--5-7-8------------------------------------------------|

Tap to rate this tab
 
# A B C D E F G H I J K L M N O P Q R S T U V W X Y Z