Song name
# A B C D E F G H I J K L M N O P Q R S T U V W X Y Z

The Last Shadow Puppets - The Time Has Come Again tab

-------------------------------------------------------------------------------
                             THE TIME HAS COME AGAIN - The Last Shadow Puppets
-------------------------------------------------------------------------------
Tabbed by: Kevin

Tuning: Standard

^ = up stroke

Key: C major

Main riff:       
                   ^   ^    ^   ^    ^   ^    ^   ^
e|---------------x-8---8--x-8---8--x-8---8--x-8---8--8--|
B|---------------x-8---8--x-8---8--x-8---8--x-8---8--8--|
G|---------------x-9---9--x-9---9--x-9---9--x-9---9--9--|
D|---------------x-10--10-x-10--10-x-10--10-x-10--10-10-|
A|-------3---5/7-x-10--10-x-10--10-x-10--10-x-10--10-10-|
E|-333-5---5-----x-8---8--x-8---8--x-8---8--x-8---8--8--|

                    ^  ^    ^  ^     ^   ^         ^   ^  ^   ^ 
e|---------------x--8--8--x-8--8--x--8---8--8--x-5-5-x-5--5-x-5-5--5-|
B|---------------x--8--8--x-8--8--x--8---8--8--x-6-6-x-6--6-x-6-6--6-|
G|---------------x--9--9--x-9--9--x--9---9--9--x-7-7-x-7--7-x-7-7--7-|
D|---------------x--10-10-x-10-10-x--10--10-10-x-7-7-x-7--7-x-7-7--7-|
A|-------3---5/7-x--10-10-x-10-10-x--10--10-10-x-5-5-x-5--5-x-5-5--5-|
E|-333-5---5-----x--8--8--x-8--8--x--8---8--8--x-----x------x--------|


C
 The time has come again
C                    Dm
 Slowly walking down the steps
C 
 To where she would have been
C                    Dm 
 If only they were seventeen

C
 Waiting patiently
C                    Dm 
 He stood between a fraying seam
C 
 Hiding from himself
C                    Dm 
 As well as everybody else
C

Dm                                  C
 Without permission his face became wet
Dm                                           C 
 He thought that he learned how to not get upset
Dm                                C                   Am
 From folded notes in envelopes, "Meet me beneath the moon"
           Dm                 G         
 Don't go too soon She went too soon

C 
 The time has come again
C                     Dm 
 Slowly walking down the steps
C
 To where she would have been
C                     Dm 
If only they were seventeen 

Outro:           
                   ^
e|---------------x-8~-------------|
B|---------------x-8~-------------|
G|---------------x-9~-------------|
D|---------------x-10~------------|
A|-------3---5/7-x-10~------------|
E|-333-5---5-----x-8~-------------|


************************************

| /   slide up
| \   slide down
| h   hammer-on
| p   pull-off
| ~   vibrato
| +   harmonic
| x   Mute note
| b   Bend
| pb  Pre-bend
| br  Bend release
| pbr Pre-bend release
| brb Bend release bend

************************************
Tap to rate this tab
 
# A B C D E F G H I J K L M N O P Q R S T U V W X Y Z