Song name
# A B C D E F G H I J K L M N O P Q R S T U V W X Y Z

The Last Ten Seconds Of Life - You Cant Turn A Ho Into A Housewife tab

-------------------------------------------------------------------------------
                             You Can't Turn A Ho Into A Housewife - The Last Ten Seconds Of Life
-------------------------------------------------------------------------------
Tabbed by: Bacon (check out my band As Judgement Day Approaches)
Email: f2bacon@gmail.com


Tuning: Drop G  ( G D G C F A )


|--------------------------------------------------|
|--------------------------------------------------|
|--------------------------------------------------|
|--------------------------------------------------|
|-0---0000---4---3---3333---111--------------------| x8
|-0---0000---4---3---3333---111--------------------|

|--------------------------------------------------|
|--------------------------------------------------|
|--------------------------------------------------|
|--------------------------------------------------|
|-000-------4---3---3333---111---------------------| x4
|-000-------4---3---3333---111---------------------|

|--------------------------------------------------|
|--------------------------------------------------|
|--------------------------------------------------|
|--------------------------------------------------|
|--2--------5-------4------1-----------------------| x4
|--2--------5-------4------1-----------------------|

|--------------------------------------------------|
|--------------------------------------------------|
|--------------------------------------------------|
|--------------------------------------------------|
|-2----1111--1111--1111---5----4----1--------------| x4
|-2----2222--2222--2222---5----4----1--------------|


Feel free to check out my band
http://www.fb.me/asjudgementdayapproaches
Tap to rate this tab
 
# A B C D E F G H I J K L M N O P Q R S T U V W X Y Z