Song name
# A B C D E F G H I J K L M N O P Q R S T U V W X Y Z

The Last Vegas - Im Bad tab

THE LAST VEGAS
IM BAD
tabbed by T
death threats, stalking notices or pledges of support to the free my house from
british airspace campaign-wasssup@hotmail.co.uk
no timings included, just what he plays
INTRO

e--------------------------|
B--------------------------|
G--------------------------|
D-777777777777777777777777-|
A-777777777777777777777777-|
E-555555555555555555555555-|

e-------------------------------------|
B-------------------------------------|
G-------------------------------------|
D-22-8-7-5-22-8-7-5-22-8-7-5-22-8-7-5-|
A-22-8-7-5-22-8-7-5-22-8-7-5-22-8-7-5-|
E-00-6-5-3-00-6-5-3-00-6-5-3-00-6-5-3-|

VERSE

e----------0---------0---------0---------0-| X4
B----------0---------0---------0---------0-|
G------------------------------------------|
D------------------------------------------|
A------------------------------------------|
E-0-06-05-0-0-06-05-0-0-06-05-0-0-06-05-0--|

PRECHORUS

e--------------------------------------5-5-5p3-5-5-5p3--|
B---------------------------------------------5-------5-|
G------------------9-9-9-7---9-9-9-7--------------------|
D-10101010-9-9-9-9-9-9-9-7-9-9-9-9-7-9------------------|
A-10101010-9-9-9-9-7-7-7/5-9-7-7-7/5-9------------------|
E-8-8-8-8--7-7-7-7---------7---------7------------------|

CHORUS

e------------------------------------| X2
B------------------------------------|
G------------------------------------|
D-2-2-2-225-5-5-5510101010107-7-7-77-|
A-2-2-2-225-5-5-5510101010107-7-7-77-|
E-0-0-0-003-3-3-338-8-8-8-8-5-5-5-55-|

lead lick

e------------------| X8
B------------------|
G-12-14b16r14p12---|
D---------------14-|
A------------------|
E------------------|

RIFFAGE
rhythm same as main riff. lead:
e-00-6-5-3-00-6-5-3-00-6-5-3-00-6-5-3-------|
B-------------------------------------15----|
G-------------------------------------17b19-|
D-------------------------------------------|
A-------------------------------------------|
E-------------------------------------------|

VERSE

e----------0---------0---------0---------0-| X4
B----------0---------0---------0---------0-|
G------------------------------------------|
D------------------------------------------|
A------------------------------------------|
E-0-06-05-0-0-06-05-0-0-06-05-0-0-06-05-0--|

PRECHORUS

e--------------------------------------5-5-5p3-5-5-5p3--|
B---------------------------------------------5-------5-|
G------------------9-9-9-7---9-9-9-7--------------------|
D-10101010-9-9-9-9-9-9-9-7-9-9-9-9-7-9------------------|
A-10101010-9-9-9-9-7-7-7/5-9-7-7-7/5-9------------------|
E-8-8-8-8--7-7-7-7---------7---------7------------------|

CHORUS

e------------------------------------| X4
B------------------------------------|
G------------------------------------|
D-2-2-2-225-5-5-5510101010107-7-7-77-|
A-2-2-2-225-5-5-5510101010107-7-7-77-|
E-0-0-0-003-3-3-338-8-8-8-8-5-5-5-55-|

lead lick

e------------------| X16
B------------------|
G-12-14b16r14p12---|
D---------------14-|
A------------------|
E------------------|
lead plays lick two more times then

RIFFAGE

e-------------------|
B-------------------|
G-------------------|
D-22-8-7-5-22-8-7-5-|
A-22-8-7-5-22-8-7-5-|
E-00-6-5-3-00-6-5-3-|

SOLO

e----------------------------------------17-14-12---------------15------|
B-14----14---------17b19r-17b19-17b19-17----------17-14-12--------17-14-|
G-16b18-16b18r16p14----------------------------------------14h16--------|
D-----------------------------------------------------------------------|
A-----------------------------------------------------------------------|
E-----------------------------------------------------------------------|

e-------------------------------------2------2------2--------|
B-------16b-16b-14b-----2--------------5p2----5p2----5p2-----|
G-16p14-16b-16b-14b--4b6-242-----2-4b6----4b6----4b6-------2-|
D---------------------------4b6r4-4----------------------4---|
A------------------------------------------------------------|
E------------------------------------------------------------|

e--------------------------------------|
B---------14----12----10----9-----7----|
G------14-16b18-14b16-12b14-11b13-9b11-|
D-14h16--------------------------------|
A--------------------------------------|
E--------------------------------------|
keep a strong vibrato on the last note until the chorus kicks in

CHORUS
miss the first powerchords, come in on the G
e------------------------------------| X4
B------------------------------------|
G------------------------------------|
D-2-2-2-225-5-5-5510101010107-7-7-77-|
A-2-2-2-225-5-5-5510101010107-7-7-77-|
E-0-0-0-003-3-3-338-8-8-8-8-5-5-5-55-|

lead lick

e------------------| X7
B------------------|
G-12-14b16r14p12---|
D---------------14-|
A------------------|
E------------------|
theres a quiet solo running through the end of the last chorus,

e-----------------------------------------|
B-----------------------------------------|
G-14b16-14b16------------------14-12------|
D------------14-14-12--------12-----14-14-|
A--------------------14-12-14-------------|
E-----------------------------------------|

e------------------------------------------17b19-17b19r17-15-|
B-15b17-15b17-15b17-15b17-15b17r15---------------------------|
G----------------------------------14-12-14------------------|
D------------------------------------------------------------|
A------------------------------------------------------------|
E------------------------------------------------------------|

e-17b19r17p15--15-15-12----------------------------------------------------|
B------------17--------15-12-----------------------------------------------|
G---------------------------14-12-14-14b16r14p12--12-14b16r14p12--12-12----|
D-----------------------------------------------14--------------14---15b17-|
A--------------------------------------------------------------------------|
E--------------------------------------------------------------------------|

ENDING

e------------------------------|
B------------------------------|
G------------------------------|
D-22-8-7-5-22-8-7-5-22-8-7-5-2-|
A-22-8-7-5-22-8-7-5-22-8-7-5-2-|
E-00-6-5-3-00-6-5-3-00-6-5-3-0-|
Tap to rate this tab
# A B C D E F G H I J K L M N O P Q R S T U V W X Y Z