Song name
# A B C D E F G H I J K L M N O P Q R S T U V W X Y Z

The Last Vegas - Loose Lips tab

THE LAST VEGAS
LOOSE LIPS
tabbed by T
email wasssup@hotmail.co.uk for death threats, hate mail/donations to the T beer fund.

these are all tabs of the phrases, so dont try to rely on the timing or anything, 
cos there isnt really one.

INTRO SOLO

lead:

e----------------------------------------------------|
B-12----12----12-----------12-12-12-12---------------|
G-11b13-11b13-11b13r11---9-9--11-9--11b13r11p9----9--|
D----------------------11----------------------11----|
A----------------------------------------------------|
E----------------------------------------------------|

e------------------------|
B-12---------------------|
G-11--11b13r11b13r11-9~~-|
D------------------------|
A------------------------|
E------------------------|

e-------12------12-----------------------------------|
B-15b17---15b17---15b17r15-12------15----------------|
G-----------------------------14b16--14b16-14-12-----|
D----------------------------------------------------|
A----------------------------------------------------|
E----------------------------------------------------|

e-------------------------------|
B-------------------------------|
G-14b16 14b16-14b16r14----12~~--|
D----------------------14-------|
A-------------------------------|
E-------------------------------|

rhythm:
play the last but asfter the two times round, just as
you enter the verse
e------------------------------------------------|----|  X2
B------------------------------------------------|--9-|
G------------------------------------------------|--9-|
D-9-11-99-11------------7-9-77-9-9-11-9-12-9-11-9|--9-|
A-7--7-77--7-9-11-99-11-5-5-55-5-7--7-7-7--7--7-7|--7-|
E------------7--7-77--7--------------------------|----|

VERSE
mute each chord after you hit it, except for the last bit.
also, sometimes they hit the root note inbetween each chord
and palm mute it, so feel free to do that.
e-------------------------------| X4
B-------------------------------|
G-------------------------------|
D-9-11-9-11-7-79-7-9------------|
A-7-7--7-7--5-55-5-5-7-79710797-|
E--------------------5-5555-555-|

CHORUS

lead

e---------------------------------| X2
B-9-99999---------7-77777-9-99999-|
G-9-99999---------7-77777-9-99999-|
D-9-99999-9-99999-7-77777-9-99999-|
A-7-77777-9-99999-5-55555-7-77777-|
E---------7-77777-----------------|

rhythm

e--------------------------------------| X2
B--------------------------------------|
G--------------------------------------|
D-9-9119-11-----------7-9-7-9-911911-9-|
A-7-77-7-7--9-9119-11-5-5-5-5-7-77-7-7-|
E-----------7-77-7-7-------------------|

VERSE
the rhythm changes slightly, but its not a major change.
also, you can hear some random palm muted root notes, 
so add some of those in now and again.
e-------------------------------| X4
B-------------------------------|
G-------------------------------|
D-9-11-9-11-7-79-7-9------------|
A-7-7--7-7--5-55-5-5-7-79710797-|
E--------------------5-5555-555-|

lead fill at the end of the second time round:

e---------------|
B---------------|
G---------------|
D-------------2-|
A---5---4-2-----|
E-0---0-----5---|

CHORUS

lead

e---------------------------------| X7
B-9-99999---------7-77777-9-99999-|
G-9-99999---------7-77777-9-99999-|
D-9-99999-9-99999-7-77777-9-99999-|
A-7-77777-9-99999-5-55555-7-77777-|
E---------7-77777-----------------|

rhythm

e--------------------------------------| X7
B--------------------------------------|
G--------------------------------------|
D-9-9119-11-----------7-9-7-9-911911-9-|
A-7-77-7-7--9-9119-11-5-5-5-5-7-77-7-7-|
E-----------7-77-7-7-------------------|

then both guitars do

e---------------------|
B-7-7-7-7-77----------|
G-7-7-7-7-77----------|
D-7-7-7-7-77--7-7-7-7-|
A-5-5-5-5-55--7-7-7-7-|
E-------------5-5-5-5-|

SOLO

lead

e----------------------------------------------------------------|
B----------------------------------------------------------------|
G------------9b11r9p7-----7----7----7-----7-9-9b11r9p7-9b11r9p7--|
D-12-11-9-------------9-9--9p7--9p7--9p7-----------------------9-|
A---------11------------------9----9----9------------------------|
E----------------------------------------------------------------|

e---------------------------------------------------------|
B----10-10--/12--15b17 15b1715b1715b1715b1715b1715b17-15*-|
G-/11-----11----------------------------------------------|
D---------------------------------------------------------|
A---------------------------------------------------------|
E---------------------------------------------------------|

e------------------------------|
B-/12-12-12-/12-12-12-10-10b12-|
G------------------------------|
D------------------------------|
A------------------------------|
E------------------------------|

e------17-----------------------------------|
B-17b19--17b19-17b19-17b19r17r15------------|
G-------------------------------16-14h16p14-|
D-------------------------------------------|
A-------------------------------------------|
E-------------------------------------------|

e-------------------------------------------|
B-15----------------------------------------|
G---16p14--1416p14----------7-9b11-9b11r9-7-|
D--------16-------16p14---------------------|
A----------------------17p14----------------|
E-------------------------------------------|

e----------------------------------------10---------------------|
B----------------------------10----10------10-------------------|
G-7---/10-9-7------7-9-7-9b11--9b11--9b11----11r9p7-9b11r9p7----|
D---9---------9-9-9-----------------------------------------979-|
A---------------------------------------------------------------|
E---------------------------------------------------------------|

rhythm

e-----------------------------------------|
B-----------------------------------------|
G-----------------------------------------|
D-----------------------7-79-7-9-7-79-7-9-|
A-9-911-9-11-9-911-9-11-5-55-5-5-5-55-5-5-|
E-7-7-7-7--7-7-7-7-7--7-------------------|

e-----------------------------------------|
B-----------------------------------------|
G-----------------------------------------|
D-----------------------------------------|
A-9-911-9-11-9-911-9-11-7-79-7-9-7-79-7-9-|
E-7-7-7-7--7-7-7-7-7--7-5-55-5-5-5-55-5-5-|

e-----------------------------------------|
B-----------------------------------------|
G-----------------------------------------|
D-----------------------7-79-7-9-7-79-7-9-|
A-9-911-9-11-9-911-9-11-5-55-5-5-5-55-5-5-|
E-7-7-7-7--7-7-7-7-7--7-------------------|

e----------------------------------|
B----------------------------------|
G----------------------------------|
D-7-7-7-7-77-7-7-7-7-77-7-7-7-7-77-|
A-7-7-7-7-77-7-7-7-7-77-7-7-7-7-77-|
E-5-5-5-5-55-5-5-5-5-55-5-5-5-5-55-|

BRIDGE

rhythm

e------------------| X4
B-4----7---------4-|
G-4----7---------4-|
D-4----7----7----4-|
A-2----5----7----2-|
E-----------5------|

lead
silence for two sets of the chords above. then
e------------------------------------|
B-----8p7----------------8p7---------|
G-9------7--7p6-7p6--9------7--7p6---|
D--9------7----7---7--9------7----7--|
A---7------------------7-----------7-|
E------------------------------------|

CHORUS

lead

e---------------------------------| X4
B-9-99999---------7-77777-9-99999-|
G-9-99999---------7-77777-9-99999-|
D-9-99999-9-99999-7-77777-9-99999-|
A-7-77777-9-99999-5-55555-7-77777-|
E---------7-77777-----------------|

rhythm

e--------------------------------------| X4
B--------------------------------------|
G--------------------------------------|
D-9-9119-11-----------7-9-7-9-911911-9-|
A-7-77-7-7--9-9119-11-5-5-5-5-7-77-7-7-|
E-----------7-77-7-7-------------------|

this lead fill is played at the end of the second time round:

e---------------|
B---------------|
G---------------|
D-------------2-|
A---5---4-2-----|
E-0---0-----5---|

OUTRO SOLO

e----------------------------------------------------|
B-12----12----12-----------12-12-12-12---------------|
G-11b13-11b13-11b13r11---9-9--11-9--11b13r11p9----9--|
D----------------------11----------------------11----|
A----------------------------------------------------|
E----------------------------------------------------|

e------------------------|
B-12---------------------|
G-11--11b13r11b13r11-9~~-|
D------------------------|
A------------------------|
E------------------------|

e-------12------12-----------------------------------|
B-15b17---15b17---15b17r15-12------15----------------|
G-----------------------------14b16--14b16-14-12-----|
D----------------------------------------------------|
A----------------------------------------------------|
E----------------------------------------------------|

e-------------------------------|
B-------------------------------|
G-14b16 14b16-14b16r14----12~~--|
D----------------------14-------|
A-------------------------------|
E-------------------------------|

e----------------------------------------------------|
B-12----12----12-----------12-12-12-12---------------|
G-11b13-11b13-11b13r11---9-9--11-9--11b13r11p9----9--|
D----------------------11----------------------11----|
A----------------------------------------------------|
E----------------------------------------------------|

e------------------------|
B-12---------------------|
G-11--11b13r11b13r11-9~~-|
D------------------------|
A------------------------|
E------------------------|

e----------------------------------------------------|
B-12----12----12-----------12-12-12-12---------------|
G-11b13-11b13-11b13r11---9-9--11-9--11b13r11p9----9--|
D----------------------11----------------------11----|
A----------------------------------------------------|
E----------------------------------------------------|

e-----------------------------------------------------------------------|
B-12----12----12----12----12---12----12----12----12----12----12---12----|
G-11b13-11b13-11b13~11b13~11b1311b13-11b13-11b13-11b13-11b13-11b1311b13-|
D-----------------------------------------------------------------------|
A-----------------------------------------------------------------------|
E-----------------------------------------------------------------------|
end on:
e-------|
B-------|
G-9-----|
D-9-----|
A-7-----|
E-------|
Tap to rate this tab
# A B C D E F G H I J K L M N O P Q R S T U V W X Y Z