Song name
# A B C D E F G H I J K L M N O P Q R S T U V W X Y Z

The Last Vegas - Whatever Gets You Off tab

THE LAST VEGAS
WHATEVER GETS YOU OFF
tabbed by T
email wasssup@hotmail.co.uk to donate. all money goes towards alcoholic beverages 
for the needy. (that'd be me.)

all tabs of phrasings, no timings, dont smoke the brown weed etc. etc.

INTRO
lead:
e------------------------------------------|
B------------------------------------------|
G-7-9---7-9-9b11r9p7--7-5-7-5-7b9r7p5--7-9-|
D-7-9---7-9---------9-7-5-7-5--------7-7-9-|
A-5-7---5-7-----------5-3-5-3----------5-7-|
E------------------------------------------|
rhythm
e-----------------------------------------------------|
B-----------------------------------------------------|
G-----------------------------------------------------|
D-7--9--------7--9--------7--5----7--5---7--9---------|
A-555777777777555777777777555333335553333555777777777-|
E-----------------------------------------------------|


e-------|
B-------|
G-------|
D-6-7-6-|
A-7-7-7-|
E-4-5-4-|

VERSE
rhythm:                                                       X2
e------------------------------------------------------------|
B------------------------------------------------------------|
G-----------------------------------77777777-----------------|
D-7777777777777777777777777755555555777777777777777777777777-|
A-7777777777777777777777777755555555555555557777777777777777-|
E-5554445555555555444555555533333333--------5555555555555555-|
lead: come in at the end of the first time round above
e------------|
B------------|
G-7b9r7p575--|
D----------7-|
A------------|
E------------|

e------------------------------------------|
B------------------------------------------|
G-7-9---7-9-9b11r9p7--7-5-7-5-7b9r7p5--7-9-|
D-7-9---7-9---------9-7-5-7-5--------7-7-9-|
A-5-7---5-7-----------5-3-5-3----------5-7-|
E------------------------------------------|

PRE CHORUS

e---------------------------------|
B---------------------------------|
G---------------------------------|
D-7-4-7-4-5-7-2---------2-4-5-6-7-|
A-7-4-7-4-5-7-2---------2-4-5-6-7-|
E-5-2-5-2-3-5-0---------0-2-3-4-5-|

CHORUS

e------------------------------------------------------------------| X2
B------------------------------------------------------------------|
G-77777777--------77777777------------------------77777777---------|
D-7777777777777777777777777777777733333333555555557777777777777777-|
A-5555555577777777555555557777777733333333555555555555555577777777-|
E---------55555555--------555555551111111133333333--------55555555-|

VERSE
rhythm:                                                       X2
e------------------------------------------------------------|
B------------------------------------------------------------|
G-----------------------------------77777777-----------------|
D-7777777777777777777777777755555555777777777777777777777777-|
A-7777777777777777777777777755555555555555557777777777777777-|
E-5554445555555555444555555533333333--------5555555555555555-|
lead: come in at the end of the first time round above
e------------|
B------------|
G-7b9r7p575--|
D----------7-|
A------------|
E------------|

e------------------------------------------|
B------------------------------------------|
G-7-9---7-9-9b11r9p7--7-5-7-5-7b9r7p5--7-9-|
D-7-9---7-9---------9-7-5-7-5--------7-7-9-|
A-5-7---5-7-----------5-3-5-3----------5-7-|
E------------------------------------------|

PRE CHORUS

e---------------------------------|
B---------------------------------|
G---------------------------------|
D-7-4-7-4-5-7-2---------2-4-5-6-7-|
A-7-4-7-4-5-7-2---------2-4-5-6-7-|
E-5-2-5-2-3-5-0---------0-2-3-4-5-|

CHORUS

e------------------------------------------------------------------| X2
B------------------------------------------------------------------|
G-77777777--------77777777------------------------77777777---------|
D-7777777777777777777777777777777733333333555555557777777777777777-|
A-5555555577777777555555557777777733333333555555555555555577777777-|
E---------55555555--------555555551111111133333333--------55555555-|

SOLO

e---------------------10-----1010-----1010-|
B-7-------7-------------13b15----13b15-----|
G-6b8-4-4-6b8-4p24-/11---------------------|
D------------------------------------------|
A------------------------------------------|
E------------------------------------------|

e-----------------------------------------------------|
B-1010b12r10---15b1715b1715b17r1512-----1212-----1212-|
G-----------11---------------------14b16----14b16-----|
D-----------------------------------------------------|
A-----------------------------------------------------|
E-----------------------------------------------------|

e--------13-15b17151315b17r15p13-------|
B-/151515-----------------------15-15~-|
G--------------------------------------|
D--------------------------------------|
A--------------------------------------|
E--------------------------------------|

e------19-----19-----1915------15--15----------------------------------|
B-18b20--18b20--18b20--15b17-15--13-------1212-----1212-12b14r12-1010--|
G------------------------------------14b16----14b16-----12b14r12-1010--|
D----------------------------------------------------------------------|
A----------------------------------------------------------------------|
E----------------------------------------------------------------------|

e----------------------------------|
B-17171717151515151313131311111111-|
G-16161616141414141212121210101010-|
D----------------------------------|
A----------------------------------|
E----------------------------------|

e---------------|
B---------------|
G---------------|
D-7-4-7-4-5-7-2-|
A-7-4-7-4-5-7-2-|
E-5-2-5-2-3-5-0-|

VERSE
rhythm:                                                       X2
e------------------------------------------------------------|
B------------------------------------------------------------|
G-----------------------------------77777777-----------------|
D-7777777777777777777777777755555555777777777777777777777777-|
A-7777777777777777777777777755555555555555557777777777777777-|
E-5554445555555555444555555533333333--------5555555555555555-|
lead: come in at the end of the first time round above
e------------|
B------------|
G-7b9r7p575--|
D----------7-|
A------------|
E------------|

e------------------------------------------|
B------------------------------------------|
G-7-9---7-9-9b11r9p7--7-5-7-5-7b9r7p5--7-9-|
D-7-9---7-9---------9-7-5-7-5--------7-7-9-|
A-5-7---5-7-----------5-3-5-3----------5-7-|
E------------------------------------------|

PRE CHORUS

e---------------------------------|
B---------------------------------|
G---------------------------------|
D-7-4-7-4-5-7-2---------2-4-5-6-7-|
A-7-4-7-4-5-7-2---------2-4-5-6-7-|
E-5-2-5-2-3-5-0---------0-2-3-4-5-|
rhythm:
e-----------|
B-----------|
G-----------|
D-2-4-5-6-7-|
A-2-4-5-6-7-|
E-0-2-3-4-5-|
lead
e-----------------|
B-----------------|
G-----------------|
D-222444555666777-|
A-----------------|
E-----------------|

CHORUS

e------------------------------------------------------------------| X2
B------------------------------------------------------------------|
G-77777777--------77777777------------------------77777777---------|
D-7777777777777777777777777777777733333333555555557777777777777777-|
A-5555555577777777555555557777777733333333555555555555555577777777-|
E---------55555555--------555555551111111133333333--------55555555-|

ENDING

e----------------------------------|
B----------------------------------|
G----------------------------------|
D33333333555555557777777-7-7-7-7-7-|
A33333333555555557777777-7-7-7-7-7-|
E11111111333333335555555-5-5-5-5-5-|
Tap to rate this tab
 
# A B C D E F G H I J K L M N O P Q R S T U V W X Y Z