Song name
# A B C D E F G H I J K L M N O P Q R S T U V W X Y Z

The Last Vegas - Another Lover tab

THE LAST VEGAS
WHATEVER GETS YOU OFF
tabbed by T
email wasssup@hotmail.co.uk to contribute to the ever growing junk mail pile.

all tabs of phrasings, no timings, etc.

INTRO

e--------------------------------------|
B--------------------------------------|
G-----4---7---------4-444444-7-7777777-|
D-4-4-4-4-7-7777777-4-444444-7-7777777-|
A-4-4-2-4-5-7777777-2-222222-5-5555555-|
E-2-2---2---5555555--------------------|\
                                         X2
e--------------------------------------|/
B--------------------------------------|
G-----4---7---------4-444444-2-2222222-|
D-4-4-4-4-7-7777777-4-444444-2-2222222-|
A-4-4-2-4-5-7777777-2-222222-0-0000000-|
E-2-2---2---5555555--------------------|

VERSE

e-------------------------------------------|
B-------------------------------------------|
G-------------------------------------------|
D-6/4/6-xxxx-6/4/6-xxxx-6/4/6-xxxx-4-444444-|
A-6/4/6-xxxx-6/4/6-xxxx-6/4/6-xxxx-4-444444-|
E-4/2/4-xxxx-4/2/4-xxxx-4/2/4-xxxx-2-222222-|

e-----------------------------------------|
B-----------------------------------------|
G-----------------------------------------|
D-6/4/6-xxxx-6/4/6-xxxx-6/4/6-xxxx-7-77-9-|
A-6/4/6-xxxx-6/4/6-xxxx-6/4/6-xxxx-7-77-9-|
E-4/2/4-xxxx-4/2/4-xxxx-4/2/4-xxxx-5-55-7-|

e-------------------------------------------| X2
B-------------------------------------------|
G-------------------------------------------|
D-6/4/6-xxxx-6/4/6-xxxx-6/4/6-xxxx-4-444444-|
A-6/4/6-xxxx-6/4/6-xxxx-6/4/6-xxxx-4-444444-|
E-4/2/4-xxxx-4/2/4-xxxx-4/2/4-xxxx-2-222222-|

PRECHORUS

e-----------------------------------|
B-----------------------------------|
G-2-2222222222222-------------------|
D-2-2222222222222-6-444444444444444-|
A-0-0000000000000-6-444444444444444-|
E-----------------4-222222222222222-|

e-----------------------------------|
B-----------------------------------|
G-2-2222222222222-6-666666666666666-|
D-2-2222222222222-6-666666666666666-|
A-0-0000000000000-4-444444444444444-|
E-----------------------------------|

CHORUS
e--------------------------------------|
B--------------------------------------|
G-----4---7---------4-444444-7-7777777-|
D-4-4-4-4-7-7777777-4-444444-7-7777777-|
A-4-4-2-4-5-7777777-2-222222-5-5555555-|
E-2-2---2---5555555--------------------|\
                                         X2
e--------------------------------------|/
B--------------------------------------|
G-----4---7---------4-444444-2-2222222-|
D-4-4-4-4-7-7777777-4-444444-2-2222222-|
A-4-4-2-4-5-7777777-2-222222-0-0000000-|
E-2-2---2---5555555--------------------|

VERSE

e-------------------------------------------|
B-------------------------------------------|
G-------------------------------------------|
D-6/4/6-xxxx-6/4/6-xxxx-6/4/6-xxxx-4-444444-|
A-6/4/6-xxxx-6/4/6-xxxx-6/4/6-xxxx-4-444444-|
E-4/2/4-xxxx-4/2/4-xxxx-4/2/4-xxxx-2-222222-|

e-----------------------------------------|
B-----------------------------------------|
G-----------------------------------------|
D-6/4/6-xxxx-6/4/6-xxxx-6/4/6-xxxx-7-77-9-|
A-6/4/6-xxxx-6/4/6-xxxx-6/4/6-xxxx-7-77-9-|
E-4/2/4-xxxx-4/2/4-xxxx-4/2/4-xxxx-5-55-7-|

e-------------------------------------------| X2
B-------------------------------------------|
G-------------------------------------------|
D-6/4/6-xxxx-6/4/6-xxxx-6/4/6-xxxx-4-444444-|
A-6/4/6-xxxx-6/4/6-xxxx-6/4/6-xxxx-4-444444-|
E-4/2/4-xxxx-4/2/4-xxxx-4/2/4-xxxx-2-222222-|

PRECHORUS

e-----------------------------------|
B-----------------------------------|
G-2-2222222222222-------------------|
D-2-2222222222222-6-444444444444444-|
A-0-0000000000000-6-444444444444444-|
E-----------------4-222222222222222-|

e-----------------------------------|
B-----------------------------------|
G-2-2222222222222-6-666666666666666-|
D-2-2222222222222-6-666666666666666-|
A-0-0000000000000-4-444444444444444-|
E-----------------------------------|

CHORUS
e--------------------------------------|
B--------------------------------------|
G-----4---7---------4-444444-7-7777777-|
D-4-4-4-4-7-7777777-4-444444-7-7777777-|
A-4-4-2-4-5-7777777-2-222222-5-5555555-|
E-2-2---2---5555555--------------------|\
                                         X2
e--------------------------------------|/
B--------------------------------------|
G-----4---7---------4-444444-2-2222222-|
D-4-4-4-4-7-7777777-4-444444-2-2222222-|
A-4-4-2-4-5-7777777-2-222222-0-0000000-|
E-2-2---2---5555555--------------------|

BRIDGE
rhythm
e-----------------------------|
B-----------------------------|
G-----------------------------|
D-----------------------------|
A-4p2-4-4p2---2---------------|
E-----------4---4p3-2-0-2-0-2-|\
                                X4
e-------------------------|    /
B-------------------------|
G-------------------------|
D-------------------------|
A-4p2-4-4p2---2-----------|
E-----------4---4p3-2-0-2-|
lead
e-9p7-9-9p7---7---------------|
B-----------9---9p8-7-5-7-5-7-|
G-----------------------------|
D-----------------------------|
A-----------------------------|
E-----------------------------|

e-9p7-9-9p7---7-----------|
B-----------9---9p8-7-5-7-|
G-------------------------|
D-------------------------|
A-------------------------|
E-------------------------|

SOLO

e----------------------------------|
B-14b17-14b17-14b17r14-11-14-14b17-|
G----------------------------------|
D----------------------------------|
A----------------------------------|
E----------------------------------|

e--------------------------------------|
B-141111-----------11-11-----14--------|
G-------1311-------11-1113b15--13p1113-|
D-----------13p1113--------------------|
A-------------~------------------------|
E--------------------------------------|

e---------------------------------------------|
B-------7-------------------------------------|
G-8p6-8---8p6-8-8-6------------------------46-|
D-------------------8-7-6-4-6p4-6p4-6p4--46---|
A---------------------------------------6-----|
E---------------------------------------------|

e----------------------------------|
B-------5--------------------------|
G-6p4-6---6p4-6-6-4----------------|
D-------------------6-4-2-4-2-4-2--|
A----------------------------------|
E----------------------------------|

e------------------------------|
B-------5----------------------|
G-6p4-6---6p4-6-6-4------------|
D-------------------6-4-2-4-2~-|
A------------------------------|
E------------------------------|

e-9p7-9-12-9p7-9-9-7---------------|
B--------------------9-7-5-7-5-7-5-|
G----------------------------------|
D----------------------------------|
A----------------------------------|
E----------------------------------|

e-9p7-9-12-9p7-9-9-7---------|
B--------------------9-7-5-7-|
G----------------------------|
D----------------------------|
A----------------------------|
E----------------------------|

PRECHORUS

e-----------------------------------|
B-----------------------------------|
G-2-2222222222222-------------------|
D-2-2222222222222-6-444444444444444-|
A-0-0000000000000-6-444444444444444-|
E-----------------4-222222222222222-|

e-----------------------------------|
B-----------------------------------|
G-2-2222222222222-6-666666666666666-|
D-2-2222222222222-6-666666666666666-|
A-0-0000000000000-4-444444444444444-|
E-----------------------------------|

CHORUS

e--------------------------------------|
B--------------------------------------|
G-----4---7---------4-444444-7-7777777-|
D-4-4-4-4-7-7777777-4-444444-7-7777777-|
A-4-4-2-4-5-7777777-2-222222-5-5555555-|
E-2-2---2---5555555--------------------|\
                                         X2
e--------------------------------------|/
B--------------------------------------|
G-----4---7---------4-444444-2-2222222-|
D-4-4-4-4-7-7777777-4-444444-2-2222222-|
A-4-4-2-4-5-7777777-2-222222-0-0000000-|
E-2-2---2---5555555--------------------|

RIFFAGE
rhythm
e-----------------------------|
B-----------------------------|
G-----------------------------|
D-----------------------------|
A-4p2-4-4p2---2---------------|
E-----------4---4p3-2-0-2-0-2-|\
                                X4
e-------------------------|    /
B-------------------------|
G-------------------------|
D-------------------------|
A-4p2-4-4p2---2-----------|
E-----------4---4p3-2-0-2-|
lead
e-9p7-9-9p7---7---------------|
B-----------9---9p8-7-5-7-5-7-|
G-----------------------------|
D-----------------------------|
A-----------------------------|
E-----------------------------|\
                                X2
e-9p7-9-9p7---7-----------|    /
B-----------9---9p8-7-5-7-|
G-------------------------|
D-------------------------|
A-------------------------|
E-------------------------|
Tap to rate this tab
# A B C D E F G H I J K L M N O P Q R S T U V W X Y Z