Song name
# A B C D E F G H I J K L M N O P Q R S T U V W X Y Z

The Last Vegas - High Class Trash tab

THE LAST VEGAS
HIGH CLASS TRASH
tabbed by T
email wasssup@hotmail.co.uk for corrections, death threats, or if you're just bored

all tabs of phrasings, no timings etc.

INTRO

e-------------------------------------------|  X4
B-------------------------------------------|
G-7-7-5-5--5-5-2-2---------7-7-5-5--5-5-2-2-|
D-7-7-5-5--5-5-2-2---------7-7-5-5--5-5-2-2-|
A--------------------0-3-0------------------|
E------------------3------------------------|

VERSE

e-------------------------------------------|  X2
B-------------------------------------------|
G-7-7-5-5--5-5-2-2---------7-7-5-5--5-5-2-2-|
D-7-7-5-5--5-5-2-2---------7-7-5-5--5-5-2-2-|
A--------------------0-3-0------------------|
E------------------3------------------------|

e-------------------------------|
B-------------------------------|
G-8-8-7-7--10-10--9--9-12-12-12-|
D-8-8-8-8--10-10-10-10-12-12-12-|
A-------------------------------|
E-------------------------------|

CHORUS

e-----------------------|  X4
B-----------------------|
G--12-12-10-12---10-8-8-|
D--12-12-10-12---10-8-8-|
A--10-10-10-10----8-8-8-|
E-----------------------|

e--------------------------------|
B--------------------------------|
G-12-11-11---10--9--9---12-11-11-|
D-12-12-12---10-10-10---12-12-12-|
A--------------------------------|
E--------------------------------|

VERSE

e-------------------------------------------|  X4
B-------------------------------------------|
G-7-7-5-5--5-5-2-2---------7-7-5-5--5-5-2-2-|
D-7-7-5-5--5-5-2-2---------7-7-5-5--5-5-2-2-|
A--------------------0-3-0------------------|
E------------------3------------------------|

e-------------------------------|
B-------------------------------|
G-8-8-7-7--10-10--9--9-12-12-12-|
D-8-8-8-8--10-10-10-10-12-12-12-|
A-------------------------------|
E-------------------------------|

CHORUS

e-----------------------|  X4
B-----------------------|
G--12-12-10-12---10-8-8-|
D--12-12-10-12---10-8-8-|
A--10-10-10-10----8-8-8-|
E-----------------------|

e--------------------------------|
B--------------------------------|
G-12-11-11---10--9--9---12-11-11-|
D-12-12-12---10-10-10---12-12-12-|
A--------------------------------|
E--------------------------------|

RIFFAGE

e-----------------------------------| X3
B-----------------------------------|
G-12-12-11-12------10-10--9-10------|
D-12-12-12-12-1212-10-10-10-10-1010-|
A-------------1212-------------1010-|
E-------------1010--------------8-8-|

e------------------|
B------------------|
G------------------|
D-1010101010101010-|
A-1010101010101010-|
E--8-8-8-8-8-8-8-8-|

SOLO

e----------------------------------------------------------------|
B-5--5--5--5------------------------------------------------8b10-|
G-7b97b97b97b97b9r7p5-5-577b9r7p5-577b9r7p5-77b9r7p5-77b9r7------|
D--------------------7-7---------7---------7--------7------7-----|
A----------------------------------------------------------------|
E----------------------------------------------------------------|

e------15-----15-----15-----15---------------------------------|
B-15b17--15b17--15b17--15b17--1515b17r15p13--131515b17r15p13---|
G------------------------------------------14---------------14-|
D--------------------------------------------------------------|
A--------------------------------------------------------------|
E--------------------------------------------------------------|

e-1414p12-----------------15b17-|
B--------14131515b17r15p13------|
G-------------------------------|
D-------------------------------|
A-------------------------------|
E-------------------------------|

VERSE

e-------------------------------------------|  X2
B-------------------------------------------|
G-7-7-5-5--5-5-2-2---------7-7-5-5--5-5-2-2-|
D-7-7-5-5--5-5-2-2---------7-7-5-5--5-5-2-2-|
A--------------------0-3-0------------------|
E------------------3------------------------|

e-------------------------------| X2
B-------------------------------|
G-8-8-7-7--10-10--9--9-12-12-12-|
D-8-8-8-8--10-10-10-10-12-12-12-|
A-------------------------------|
E-------------------------------|
lead lick:
e---------------|
B-15b17r15p13---|
G------------14-|
D---------------|
A---------------|
E---------------|

CHORUS

e-----------------------|  X8
B-----------------------|
G--12-12-10-12---10-8-8-|
D--12-12-10-12---10-8-8-|
A--10-10-10-10----8-8-8-|
E-----------------------|

e--------------------------------|
B--------------------------------|
G-12-11-11---10--9--9---12-11-11-|
D-12-12-12---10-10-10---12-12-12-|
A--------------------------------|
E--------------------------------|
Tap to rate this tab
# A B C D E F G H I J K L M N O P Q R S T U V W X Y Z