Song name
# A B C D E F G H I J K L M N O P Q R S T U V W X Y Z

The Last Vegas - Cherry Red tab

THE LAST VEGAS
CHERRY RED
tabbed by T
email wasssup@hotmail.co.uk for more sarcastic comments

all tabs of phrasings, no timings, etc.

INTRO/VERSE
rhythm
e---------------| X8
B---------------|
G----------7777-|
D-5-7777-5-7777-|
A-5-7777-5-5555-|
E-3-5555-3------|
pm    .      .
lead
e-9-9-9-9-10--10--10--10---| X4
B--8-8-8-8--10--10--10--10-|
G--------------------------|
D--------------------------|
A--------------------------|
E--------------------------|

PRE-CHORUS

e----------------------|
B---3-3----3-3---3-3---|
G---0-0----0-0---0-0---|
D-2------2-----2-----5-|
A-2------2-----2-----5-|
E-0------0-----0-----3-|

CHORUS
rhythm
e---------------| X2
B---------------|
G-2-5-7---2-5-7-|
D-2-5-7---2-5-7-|
A-0-3-5---0-3-5-|
E---------------|
lead
e-----------------|------------------------------------|
B-----------------|------------------------------------|
G------12---------|------12--------12b14-12-9----------|
D-12b14--12b14r12-|-12b14--12b14-10-----------12b14r12-|
A-----------------|------------------------------------|
E-----------------|------------------------------------|

VERSE
rhythm
e---------------| X8
B---------------|
G----------7777-|
D-5-7777-5-7777-|
A-5-7777-5-5555-|
E-3-5555-3------|
pm    .      .
lead
e-9-9-9-9-10--10--10--10---| X4
B--8-8-8-8--10--10--10--10-|
G--------------------------|
D--------------------------|
A--------------------------|
E--------------------------|


PRE-CHORUS

e----------------------|
B---3-3----3-3---3-3---|
G---0-0----0-0---0-0---|
D-2------2-----2-----5-|
A-2------2-----2-----5-|
E-0------0-----0-----3-|

CHORUS
rhythm
e---------------| X4
B---------------|
G-2-5-7---2-5-7-|
D-2-5-7---2-5-7-|
A-0-3-5---0-3-5-|
E---------------|
lead
e-----------------|------------------------------------|
B-----------------|------------------------------------|
G------12---------|------12--------12b14-12-9----------|
D-12b14--12b14r12-|-12b14--12b14-10-----------12b14r12-|
A-----------------|------------------------------------|
E-----------------|------------------------------------|

e-----------------|------------------|
B-----------------|------------------|
G------12---------|------12------14~-|
D-12b14--12b14r12-|-12b14--12b14-----|
A-----------------|------------------|
E-----------------|------------------|

SOLO

e-------------------------------------------------------|
B----------7-----------10-8-10p8h10-10h13-13~-10h13-13b-|
G-9--------6b8r6p4-6-6~---------------------------------|
D-9b11-7-7----------------------------------------------|
A-------9-----------------------------------------------|
E-------------------------------------------------------|

e----17-20p17-----20p17-----20p17--17-17----17----|
B-10---------20p17-----20p17-----20---20b22-20b22-|
G-------------------------------------------------|
D-------------------------------------------------|
A-------------------------------------------------|
E-------------------------------------------------|

e--------------------------------------------------------------------|
B--------------------------------------------------------------------|
G-12b14r12-12p9p8-9p8--------------------------------12--------------|
D--------------------12-12b14r12p10-12b14r12p10-12b14--12b14r12------|
A--------------------------------------------------------------12-12-|
E--------------------------------------------------------------------|

e---------------|
B---------------|
G---------------|
D---------------|
A-10~~~9~~~7~~~-|
E---------------|

e-----------------|
B-----------------|
G-----------------|
D-2-2222222222222-|
A-2-2222222222222-|
E-0-0000000000000-|

CHORUS
rhythm
e---------------| X8
B---------------|
G-2-5-7---2-5-7-|
D-2-5-7---2-5-7-|
A-0-3-5---0-3-5-|
E---------------|
lead
e-----------------|------------------------------------| X4
B-----------------|------------------------------------|
G------12---------|------12--------12b14-12-9----------|
D-12b14--12b14r12-|-12b14--12b14-10-----------12b14r12-|
A-----------------|------------------------------------|
E-----------------|------------------------------------|


e----|
B----|
G----|
D-7/-|
A-7/-|
E-5/-|

Tap to rate this tab
 
# A B C D E F G H I J K L M N O P Q R S T U V W X Y Z