Song name
# A B C D E F G H I J K L M N O P Q R S T U V W X Y Z

The Last Vegas - Dirty Things You Do tab

THE LAST VEGAS
DIRTY THINGS YOU DO
tabbed by T
email wasssup@hotmail.co.uk for anything. anything at all.

all tabs of phrasings, no timings etc.

INTRO

e------------------------------|
B------------------------------|
G-9/-xx-7-9/-xx-7-9/-----------|
D-9/-xx-7-9/-xx-7-9/-5-5-7-7---|
A-7/-xx-5-7/-xx-5-7/-5-5-7-7---|
E--------------------3-3-5-5-0-|\
                                 X2
e----------------------------|  /
B----------------------------|
G-9/-xx-7-9/-xx-7-9/---------|
D-9/-xx-7-9/-xx-7-9/-5-5-6-7-|
A-7/-xx-5-7/-xx-5-7/-5-5-6-7-|
E--------------------3-3-4-5-|

VERSE

e---------------------------------------------------|
B---------------------------------------------------|
G-9-8-7/-xxxxx--------------------------7-8-9-xxxxx-|
D-9-8-7/-xxxxx-5-6-7/-xxxxx-5-6-7-7-6-5-7-8-9-xxxxx-|
A-7-6-5/-xxxxx-5-6-7/-xxxxx-5-6-7-7-6-5-5-6-7-xxxxx-|
E--------------3-4-5/-xxxxx-3-4-5-5-4-3-------------|

e---------------------------------------------------|
B---------------------------------------------------|
G-9-7-9/-xxxxx--------------------------7-8-9-xxxxx-|
D-9-7-9/-xxxxx-5-6-7/-xxxxx-5-6-7-7-6-5-7-8-9-xxxxx-|
A-7-5-7/-xxxxx-5-6-7/-xxxxx-5-6-7-7-6-5-5-6-7-xxxxx-|
E--------------3-4-5/-xxxxx-3-4-5-5-4-3-------------|

e---------------------------------------------------|
B---------------------------------------------------|
G-9-8-7/-xxxxx--------------------------7-8-9-xxxxx-|
D-9-8-7/-xxxxx-5-6-7/-xxxxx-5-6-7-7-6-5-7-8-9-xxxxx-|
A-7-6-5/-xxxxx-5-6-7/-xxxxx-5-6-7-7-6-5-5-6-7-xxxxx-|
E--------------3-4-5/-xxxxx-3-4-5-5-4-3-------------|

PRECHORUS

e-------------------------------------|
B-------------------------------------|
G-4444444444444444-55555555------5555-|
D-4444444444444444-55555555-7777-5555-|
A-2222222222222222-33333333-7777-3333-|
E---------------------------5555------|

e--------------------------------------|
B--------------------------------------|
G-4444444444444444-55555555-777777-7-9-|
D-4444444444444444-55555555-777777-7-9-|
A-2222222222222222-33333333-555555-5-7-|
E--------------------------------------|

CHORUS
e------------------------------------------------| X2
B------------------------------------------------|
G-9-7-9-99999-77777777---------------------------|
D-9-7-9-99999-77777777-5-6-7-7777777-7-5-2-7-5-2-|
A-7-5-7-77777-55555555-5-6-7-7777777-7-5-2-7-5-2-|
E-------00000----------3-4-5-5555555-5-3-0-5-3-0-|



RIFFAGE

e------------------------------|
B------------------------------|
G-9/-xx-7-9/-xx-7-9/-----------|
D-9/-xx-7-9/-xx-7-9/-5-5-7-7---|
A-7/-xx-5-7/-xx-5-7/-5-5-7-7---|
E--------------------3-3-5-5-0-|\
                                 X2
e----------------------------|  /
B----------------------------|
G-9/-xx-7-9/-xx-7-9/---------|
D-9/-xx-7-9/-xx-7-9/-5-5-6-7-|
A-7/-xx-5-7/-xx-5-7/-5-5-6-7-|
E--------------------3-3-4-5-|

VERSE

e---------------------------------------------------|
B---------------------------------------------------|
G-9-8-7/-xxxxx--------------------------7-8-9-xxxxx-|
D-9-8-7/-xxxxx-5-6-7/-xxxxx-5-6-7-7-6-5-7-8-9-xxxxx-|
A-7-6-5/-xxxxx-5-6-7/-xxxxx-5-6-7-7-6-5-5-6-7-xxxxx-|
E--------------3-4-5/-xxxxx-3-4-5-5-4-3-------------|

e---------------------------------------------------|
B---------------------------------------------------|
G-9-7-9/-xxxxx--------------------------7-8-9-xxxxx-|
D-9-7-9/-xxxxx-5-6-7/-xxxxx-5-6-7-7-6-5-7-8-9-xxxxx-|
A-7-5-7/-xxxxx-5-6-7/-xxxxx-5-6-7-7-6-5-5-6-7-xxxxx-|
E--------------3-4-5/-xxxxx-3-4-5-5-4-3-------------|

e---------------------------------------------------|
B---------------------------------------------------|
G-9-8-7/-xxxxx--------------------------7-8-9-xxxxx-|
D-9-8-7/-xxxxx-5-6-7/-xxxxx-5-6-7-7-6-5-7-8-9-xxxxx-|
A-7-6-5/-xxxxx-5-6-7/-xxxxx-5-6-7-7-6-5-5-6-7-xxxxx-|
E--------------3-4-5/-xxxxx-3-4-5-5-4-3-------------|

PRECHORUS

e-------------------------------------|
B-------------------------------------|
G-4444444444444444-55555555------5555-|
D-4444444444444444-55555555-7777-5555-|
A-2222222222222222-33333333-7777-3333-|
E---------------------------5555------|

e--------------------------------------|
B--------------------------------------|
G-4444444444444444-55555555-777777-7-9-|
D-4444444444444444-55555555-777777-7-9-|
A-2222222222222222-33333333-555555-5-7-|
E--------------------------------------|

CHORUS

e------------------------------------------------| X2
B------------------------------------------------|
G-9-7-9-99999-77777777---------------------------|
D-9-7-9-99999-77777777-5-6-7-7777777-7-5-2-7-5-2-|
A-7-5-7-77777-55555555-5-6-7-7777777-7-5-2-7-5-2-|
E-------00000----------3-4-5-5555555-5-3-0-5-3-0-|



SOLO

e-------------------------------------------|
B-------------------------------------------|
G--------8~-8h9-11b12-12r11-11-9h11p9-8h9-8-|
D---7h9~9-----------------------------------|
A-9~----------------------------------------|
E-------------------------------------------|

e----------17p14--1417b19-17~-1715h17p15p14------------|
B---------------17-------------------------17b19-17b19-|
G-9b11-9b11--------------------------------------------|
D------------------------------------------------------|
A------------------------------------------------------|
E------------------------------------------------------|

e----------------------------------------|
B-17b19r17-17-15h17p15p14-15-14----------|
G-------------------------------16-14-16-|
D----------------------------------------|
A----------------------------------------|
E----------------------------------------|

RIFFAGE

e------------------------------|
B------------------------------|
G-9/-xx-7-9/-xx-7-9/-----------|
D-9/-xx-7-9/-xx-7-9/-5-5-7-7---|
A-7/-xx-5-7/-xx-5-7/-5-5-7-7---|
E--------------------3-3-5-5-0-|\
                                 X4
e----------------------------|  /
B----------------------------|
G-9/-xx-7-9/-xx-7-9/---------|
D-9/-xx-7-9/-xx-7-9/-5-5-6-7-|
A-7/-xx-5-7/-xx-5-7/-5-5-6-7-|
E--------------------3-3-4-5-|

CHORUS

e------------------------------------------------| X4
B------------------------------------------------|
G-9-7-9-99999-77777777---------------------------|
D-9-7-9-99999-77777777-5-6-7-7777777-7-5-2-7-5-2-|
A-7-5-7-77777-55555555-5-6-7-7777777-7-5-2-7-5-2-|
E-------00000----------3-4-5-5555555-5-3-0-5-3-0-|

Tap to rate this tab
 
# A B C D E F G H I J K L M N O P Q R S T U V W X Y Z