Song name
# A B C D E F G H I J K L M N O P Q R S T U V W X Y Z

The Last Vegas - Love Me Bad tab

THE LAST VEGAS
LOVE ME BAD
tabbed by T
email wasssup@hotmail.co.uk for any hate mail etc.
no timings included, just what he plays.

INTRO

e-------------------------------------------|
B-------------------------------------------|
G-------------------------------------------|
D-xx------------------xx--------------------|
A-xx-5p0-0-05p0-0-0-0-xx-5p0-0-05p0-0-0-2b3-|
E------------------3------------------------|

e-----------------------------------------|
B---------------------------------------5-|
G---------------------------------------5-|
D-xx------------------xx----------------5-|
A-xx-5p0-0-05p0-0-0-0-xx-5p0-0-05p0-0-0-2-|
E------------------3----------------------|

RIFFAGE

e------------------------------------------|
B------------------------------------------|
G-----2--2---------------------------------|
D-----2--2-------------------5--5----------|
A-----0--0-0-3p0-5p0-3p0-----5--5-----3----|
E-3h5--------------------0h3-3--3-03h5-535-|

e-----------------------------------------------------|
B-----------------------------------------------------|
G-----2--2-5b7r5p2------------------------------------|
D-----2--2---------5-2---------5--5-5-4---------------|
A-----0--0-------------5-3-----5--5-----5-4h5-4h5p4-2-|
E-3h5----------------------0h3-3--3-------------------|

VERSE

e----------------------| 
B----------------------|
G----------------------|
D------xxxx-----xx-----|
A--5p0-xxxx-5p0-xx-5p0-|
E----------------------|\
                         X2
e----------------------|/ 
B----------------------|
G----------------------|
D------xxxx-----xx-----|
A--5p0-xxxx-5p0-xx-2b3-|
E----------------------|

e-----------------------| X4
B-----------------------|
G----222222---2222---22-|
D----222222---2222---22-|
A----000000---0000---00-|
E-3h5------3h5----3h5---|

XHORUS

e------------------------------------------|
B------------------------------------------|
G-----2--2---------------------------------|
D-----2--2-------------------5--5----------|
A-----0--0-0-3p0-5p0-3p0-----5--5-----3----|
E-3h5--------------------0h3-3--3-03h5-535-|

e-----------------------------------------------------|
B-----------------------------------------------------|
G-----2--2-5b7r5p2------------------------------------|
D-----2--2---------5-2---------5--5-5-4---------------|
A-----0--0-------------5-3-----5--5-----5-4h5-4h5p4-2-|
E-3h5----------------------0h3-3--3-------------------|

SOLO

e--------------------------------------------------|
B-8b10~~r8b10r8b10-8-7-7b8r7b8r7-8-7-5h7p5-3-5-3b5-|
G--------------------------------------------------|
D--------------------------------------------------|
A--------------------------------------------------|
E--------------------------------------------------|

e----5------5--------xx-5-8p5-8-10-10b12-8p5~~~-|
B-----8p5----8p5-8b10---------------------------|
G-7b9----7b9------------------------------------|
D-----------------------------------------------|
A-----------------------------------------------|
E-----------------------------------------------|
sustain the last A through the first bit of the verse
VERSE

e------------------------------------------|
B------------------------------------------|
G-7-7-7-7777-7-7-7-7777-7-7-7-7777-7-7-7-7-|
D-7-7-7-7777-7-7-7-7777-7-7-7-7777-7-7-7-7-|
A-5-5-5-5555-5-5-5-5555-5-5-5-5555-5-5-5-5-|
E------------------------------------------|

CHORUS

e------------------------------------------|
B------------------------------------------|
G-----2--2---------------------------------|
D-----2--2-------------------5--5----------|
A-----0--0-0-3p0-5p0-3p0-----5--5-----3----|
E-3h5--------------------0h3-3--3-03h5-535-|

e------------------------------------------------------|
B------------------------------------------------------|
G-----2--2-5b7r5p2-------------------------------------|
D-----2--2---------5-2---------5--5-5-4----------------|
A-----0--0-------------5-3-----5--5-----5-4h5-4h5p4-2/-|
E-3h5----------------------0h3-3--3------------------/-|

SOLO 2

e--------------------------------------------------------------|
B----------------7b8-------------------------------------------|
G----------5-7-5-7b8-7~---5-7-5-7b9-7--------------------------|
D---5/7-7-7-------------7-------------7~7-/9-9-7--9-7-5h7p4----|
A----------------------------------------------------------5-5-|
E-5/-----------------------------------------------------------|

e-3p0-0h3p0---------------------------------------------|
B----3-----3-3b5r3-0------------------------------------|
G-----------------2-2p0-0-------------------------------|
D----------------------2-2p02p0-2---33b4---------3b4----|
A---------------------------------5-----55-3-3h5----5-5-|
E-------------------------------------------------------|

e----------------------12-12--------10--------------------------------|
B--------7--10-10------12-12------10--13p10--10h13p10--10h13p1p-13b15-|
G--------7--10-10-12b14------10b12---------12--------12---------------|
D---------------------------------------------------------------------|
A-5--7-7--------------------------------------------------------------|
E---------------------------------------------------------------------|

e------------------------------------|
B-13b15-13b15-14-13b15-7b8-7b8-7b8-5-|
G----------------------7b8-7b8-7b8-5-|
D------------------------------------|
A------------------------------------|
E------------------------------------|

BRIDGE
                                                               use a killswitch here
e-3-3-2--3-2-0--3-3-2--3-2-0------3-3-2-3p2--3-2-0------3-3-2--3---0-|
B-3-3-3--3-3-2--3-3-3--3-3-2------3-3-3----3-3-3-2------3-3-3--3---2-|
G-0-0-2--0-2-2--0-0-2--0-2-2----2-0-0-2------0-2-2----2-0-0-2--0---2-|
D-0-0-0--0-0-2--0-0-0--0-0-2------0-0-0------0-0-2------0-0-0--0---2-|
A------------0-------------0-3h4-----------------0-3h4-------------0-|
E-3-3----3------3-3----3----------3-3--------3----------3-3----3-----|

e-3-----------0--------------3------------------3-3--3---0------------------------|
B-3-3/5-5/3-3-2--------------3------------------3---3--3-2------------------------|
G-0-----------2----2---------0------------------0--------2-4-6-7-6-7/9-6-6/7-6--4-|
D-0-----------2-2h4--4p2h4p2-0--225-5p4-4-4-0-2-0--------2------------------------|
A-------------0------------------------------------------0------------------------|
E-3--------------------------3------------------3---------------------------------|

e-8p7-5-7-5-55p3---------------------------------|
B---------------3b4-----------3b4----------------|
G------------------2-2p0-0-2-0---2-2p0-----------|
D-------------------------------------2p1b2------|
A------------------------------------------3b4-0-|
E------------------------------------------------|

e---------3---3-----|
B---------3---3-----|
G---------0---0-----|
D-3---3---0---0---/-|
A-3---3-----------/-|
E-1---1---3---3---/-|

CHORUS

e------------------------------------------|
B------------------------------------------|
G-----2--2---------------------------------|
D-----2--2-------------------5--5----------|
A-----0--0-0-3p0-5p0-3p0-----5--5-----3----|
E-3h5--------------------0h3-3--3-03h5-535-|           \
                                                        X2
e-----------------------------------------------------|/
B-----------------------------------------------------|
G-----2--2-5b7r5p2------------------------------------|
D-----2--2---------5-2---------5--5-5-4---------------|
A-----0--0-------------5-3-----5--5-----5-4h5-4h5p4-2-|
E-3h5----------------------0h3-3--3-------------------|

SOLO 3

e----------------------------------------------------------|
B-5---5--5---5--5---5----5---------------------10~10~10~---|
G-7b9-7b97b9-7b97b9-7b10-7b10-5h7p5-5-----5b7--------------|
D----------------------------------7-7p5h7---77----------/-|
A--------------------------------------------------------/-|
E--------------------------------------------------------/-|

e-15b17-15b17-15b17-15b18r15-15p12--1215p12--1215p12--1215p12--12-|
B---------------------------------15-------15-------15-------15---|
G-----------------------------------------------------------------|
D-----------------------------------------------------------------|
A-----------------------------------------------------------------|
E-----------------------------------------------------------------|

e-15p12h15p12--12h15p12h15p12--12h15p12h15p12-----------------15------|
B------------15--------------15--------------15-17b18r17b18r17--12b14-|
G---------------------------------------------------------------------|
D---------------------------------------------------------------------|
A---------------------------------------------------------------------|
E---------------------------------------------------------------------|

e------15-15-----15-1515----------------------------------|
B-15b17-----15b17-----15b17r15b17r15-15-13-15b17r15b17r15-|
G---------------------------------------------------------|
D---------------------------------------------------------|
A---------------------------------------------------------|
E---------------------------------------------------------|
after this there are two guitars, one does random solo-y stuff
i cant figure out, and the other does this
e------1515-----1515-----1515-----1515------------------------------------|
B-15b17----15b17----15b17----15b17----15-13-15-13-15-13-------15b17-15b17-|
G-------------------------------------------------------14-14~------------|
D-------------------------------------------------------------------------|
A-------------------------------------------------------------------------|
E-------------------------------------------------------------------------|

e-------------------------------------------------------------------|
B-------------------------9-11b13-11b13-11b13-15b17-15b17r15p12-15~-|
G-7b9-5b7------------9-11-------------------------------------------|
D--------7p5h7p5-7-7~-----------------------------------------------|
A-------------------------------------------------------------------|
E-------------------------------------------------------------------|

e----------------------------------|
B-15p12------15b17-15b17r15p12-15~-|
G------14-12-----------------------|
D----------------------------------|
A----------------------------------|
E----------------------------------|

e-------------------------3-3-2-2-3-3-2-2-3-3-2-2-3-3-2---|
B-------------------------3-3-3-3-3-3-3-3-3-3-3-3-3-3-3---|
G----2-2--------------2-2-0-0-2-2-0-0-2-2-0-0-2-2-0-0-2---|
D----2-2-------5-5----2-2-0-0-0-0-0-0-0-0-0-0-0-0-0-0-0---|
A----0-0-------5-5----0-0---------------------------------|
E-3h5------0h3-3-3-3h5----3-3-----3-3-----3-3-----3-3-----|

Tap to rate this tab
 
# A B C D E F G H I J K L M N O P Q R S T U V W X Y Z