Song name
# A B C D E F G H I J K L M N O P Q R S T U V W X Y Z

The Last Vegas - White Lies tab

THE LAST VEGAS
WHITE LIES
tabbed by T
email wasssup@hotmail.co.uk for any corrections or similar

all tabs of phrasings, no timings etc.

INTRO

e---------------------------------------------------------------------| X6
B---------------------------------------------------------------------|
G---------------------------------------------------------------------|
D-13----14----16----14----131413h14p13-11----12----11----12----111211-|
A-141414141414141414141414141414-14-14-121212121212121212121212121212-|
E---------------------------------------------------------------------|

VERSE

e--------------------------------| X8
B------------5p4------------3p2--|
G---------------4--------------2-|
D-4--4--4--4-----2--2--2--2------|
A-22222222222----00000000000-----|
E--------------------------------|

CHORUS

e--------------------------------------| X2
B------------------333-----------------|
G-4444444444444444-222222--------------|
D-4444444444444444-000222--------------|
A-2222222222222222----000----0-3-0---0-|
E-------------------------3b5------3---|

TINY SOLO
rhythm:
e---------------------------------------------------------------------| X6
B---------------------------------------------------------------------|
G---------------------------------------------------------------------|
D-13----14----16----14----131413h14p13-11----12----11----12----111211-|
A-141414141414141414141414141414-14-14-121212121212121212121212121212-|
E---------------------------------------------------------------------|
lead:
e---------------------------------------------------|
B---------------------------------------------------|
G------------------------------------------------16-|
D------------------------12-14-14b16r14-12-14-16----|
A------------------12-14----------------------------|
E-/7-9-10-9-/12-12----------------------------------|

VERSE

e---------------------------------------------------------------------| X6
B---------------------------------------------------------------------|
G---------------------------------------------------------------------|
D-13----14----16----14----131413h14p13-11----12----11----12----111211-|
A-141414141414141414141414141414-14-14-121212121212121212121212121212-|
E---------------------------------------------------------------------|
for the last tiny bit play
e---------|
B---------|
G-2-2-2-2-|
D-2-2-2-2-|
A-0-0-0-0-|
E---------|

CHORUS

e--------------------------------------| X4
B------------------333-----------------|
G-4444444444444444-222222--------------|
D-4444444444444444-000222--------------|
A-2222222222222222----000----0-3-0---0-|
E-------------------------3b5------3---|

SOLO

e----------------------------------------------12----------12-----------15b17r16b17r16b17-|
B---------------------17~17~-15b16r15-15~--------15p12-------15p12------------------------|
G-14b16r14p12---14-16---------------------14b16-------14b16-------14b16-------------------|
D------------14---------------------------------------------------------------------------|
A-----------------------------------------------------------------------------------------|
E-----------------------------------------------------------------------------------------|

e--0000000000000000-0-0-0-0-0-0-0-0-0-0-0-0-0-0-0-0-|
B-/555555557777888810101010121212121414141415151515-|
G---------------------------------------------------|
D---------------------------------------------------|
A---------------------------------------------------|
E---------------------------------------------------|

e-016p0014p0016p0014p0016p014p015b17r15-12-----12------|
B-----------------------------------------15b17--15-12-|
G------------------------------------------------------|
D------------------------------------------------------|
A------------------------------------------------------|
E------------------------------------------------------|

e----------------------------------------------|
B----------------------------------------------|
G-14p12--12------------------------------------|
D------14---14-13-12---------------------------|
A--------------------14-12h131312h131312h13/14-|
E----------------------------------------------|

BRIDGE

rhythm:
e---------------------------------------------------------------------| X6
B---------------------------------------------------------------------|
G---------------------------------------------------------------------|
D-13----14----16----14----131413h14p13-11----12----11----12----111211-|
A-141414141414141414141414141414-14-14-121212121212121212121212121212-|
E---------------------------------------------------------------------|
lead:
e-----------------------------------| X2
B-----------------------------------|
G-----------------------------------|
D----------------------12-11--12h14-|
A-------------------/14-------------|
E-/7-9-10-9-/12-12------------------|

CHORUS

e--------------------------------------| X4
B------------------333-----------------|
G-4444444444444444-222222--------------|
D-4444444444444444-000222--------------|
A-2222222222222222----000----0-3-0---0-|
E-------------------------3b5------3---|

OUTRO

e---------------------------------------------------------------------| 
B---------------------------------------------------------------------|
G---------------------------------------------------------------------|
D-13----14----16----14----131413h14p13-11----12----11----12----111211-|
A-141414141414141414141414141414-14-14-121212121212121212121212121212-|
E---------------------------------------------------------------------|
keep plaing this as it fades out
Tap to rate this tab
# A B C D E F G H I J K L M N O P Q R S T U V W X Y Z