Guitaretab - guitar tabs
Song name
# A B C D E F G H I J K L M N O P Q R S T U V W X Y Z

The Last Vegas - Raw Dog tab

Hi, This is my first tab so if there's anything wrong with it i'm sorry but oh well. 
you should note that this tab does not contain the solo and some of the high bits after it. Enjoy!

Raw Dog by The Last Vegas

e[-------------5p4p2-5p4p2-5p4p2-5p4p2--------------5-4-2-7~ ---]
B[--------------------------------------------------------------]
G[--------------------------------------------------------------]
D[-2-2-2-5----------------------------------2-2-2-5-------------]
A[-2-2-2-5----------------------------------2-2-2-5-------------]
E[-0-0-0-3----------------------------------0-0-0-3-------------]


e[--------------10p9p7-10p9p7-10p9p7-10p9p7-------------------]
B[------------------------------------------------------------]
G[------------------------------------------------------11b~--]
D[-2-2-2-5------------------------------------2-2-2-5---11b~--]
A[-2-2-2-5------------------------------------2-2-2-5----9b~--]
E[-0-0-0-3------------------------------------0-0-0-3---------]


e]-------------------------------------------------------]
B]-------------------------------------------------------]
G]-9-------------------------------9---------------------]x 3
D]-9-------------------------------9---------------------]
A]-7---7-5-7-7-5-7-5---------------7---7-5-7-7-5---------]
E]--------------------7-6-6-5--------------------7-6-5-3-]


e]-------------------------------------------7-6-5-4~ ----]
B]--------------------------------------------------------]
G]-9--9-7-9-9-7-9-7-----------9---9-7-9-9-7---------------]
D]-9----------------9-8-8-7---9---------------------------]
A]-7--------------------------7---------------------------]
E]--------------------------------------------------------]


e]------------------------------------------------------------]
B]------------------------------------------------------------]
G]--------------------------------------3-3----------3-2-1----]
D]-5-5-5-5-5-4-3-2-5-5-5-5-5-4-3--2-2---3-3---2-2-------------]
A]-5-5-5-5-5-4-3-2-5-5-5-5-5-4-3--2-2---1-1---2-2-------------]
E]-3-3-3-3-3-2-1-0-3-3-3-3-3-2-1--0-0---------0-0-------------]
                           ^^^^^^^^^^^
                           this bit x2
                           vvvvvvvvvvv
                e[-------------------------]
                B[-------------------------]
                G[-------3-3----------3-2-1]
                D[-2-2---3-3---2-2---------]
                A[-2-2---1-1---2-2---------]
                E[-0-0---------0-0---------]

e]--------------------------------------------------------]
B]--------------------------------------------------------]
G]-9-------------------------------9----------------------]
D]-9-------------------------------9----------------------]
A]-7---7-5-7-7-5-7-5---------------7---7-5-7-7-5----------]
E]--------------------7-6-6-5---------------------7-6-5-3-]


e]--------------------------------------------7-6-5-4~-]
B]-----------------------------------------------------]
G]-9--9-7-9-9-7-9-7------------9---9-7-9-9-7-----------]
D]-9-----------------9-8-8-7---9-----------------------]
A]-7---------------------------7-----------------------]
E]-----------------------------------------------------]

e]------------------------------------------------------------]
B]------------------------------------------------------------]
G]--------------------------------------3-3----------3-2-1----]
D]-5-5-5-5-5-4-3-2-5-5-5-5-5-4-3--2-2---3-3---2-2-------------]
A]-5-5-5-5-5-4-3-2-5-5-5-5-5-4-3--2-2---1-1---2-2-------------]
E]-3-3-3-3-3-2-1-0-3-3-3-3-3-2-1--0-0---------0-0-------------]
                           ^^^^^^^^^^^
                           this bit x2
                           vvvvvvvvvvv
                 e[-------------------------]
                 B[-------------------------]
                 G[-------3-3----------3-2-1]
                 D[-2-2---3-3---2-2---------]
                 A[-2-2---1-1---2-2---------]
                 E[-0-0---------0-0---------]

[ Tab from: http://www.guitaretab.com/t/the-last-vegas/91703.html ]
e[---3-0-----------------------------------------------------]
B[-------3-0-------------------------------------------------]
G[------------2-0--------------------------------------------]
D[-----------------2-0---7777777777777777-2222222222222222--]
A[------------------------7777777777777777-2222222222222222--]
E[------------------------5555555555555555-0000000000000000--]
                       ^^^^^^^^^^^
                       this bit x2
                       vvvvvvvvvvv
            e[-------------------------------]
            B[-------------------------------]
            G[-------------------------------]
            D[-5555555555555555-22222222-----]
            A[-5555555555555555-22222222-----]
            E[-3333333333333333-00000000-----]


e[-------------5p4p2-5p4p2-5p4p2-5p4p2--------------5-4-2-7~---]
B[-------------------------------------------------------------]
G[-------------------------------------------------------------]
D[-2-2-2-5---------------------------------2-2-2-5-------------]
A[-2-2-2-5---------------------------------2-2-2-5-------------]
E[-0-0-0-3---------------------------------0-0-0-3-------------]


e[--------------10p9p7-10p9p7-10p9p7-10p9p7-------------------]
B[------------------------------------------------------------]
G[------------------------------------------------------11b~--]
D[-2-2-2-5------------------------------------2-2-2-5---11b~--]
A[-2-2-2-5------------------------------------2-2-2-5----9b~--]
E [-0-0-0-3------------------------------------0-0-0-3--------]


------------------------------SOLO------------------------------------------


Rhythm guitar in solo:
e[--------------------------------------------------------]
B[--------------------------------------------------------]
G[--------3-3----------3-2-1----------3-3---------3-2-1---]-x8
D[-2-2----3-3---2-2-------------2-2--3-3---2-2-----------]
A[-2-2----1-1---2-2-------------2-2---1-1--2-2-----------]
E[-0-0----------0-0-------------0-0---------0-0-----------]


e]------------------------------------------------------------]
B]------------------------------------------------------------]
G]--------------------------------------3-3----------3-2-1----]
D]-5-5-5-5-5-4-3-2-5-5-5-5-5-4-3--2-2---3-3---2-2-------------]
A]-5-5-5-5-5-4-3-2-5-5-5-5-5-4-3--2-2---1-1---2-2-------------]
E]-3-3-3-3-3-2-1-0-3-3-3-3-3-2-1--0-0---------0-0-------------]
                           ^^^^^^^^^^^
                           this bit x2
                           vvvvvvvvvvv
                e[-------------------------]
                B[-------------------------]
                G[-------3-3----------3-2-1]
                D[-2-2---3-3---2-2---------]
                A[-2-2---1-1---2-2---------]
                E[-0-0---------0-0---------]


e]-------------------------------------------------------]
B]-------------------------------------------------------]
G]-9-------------------------------9---------------------]x 2
D]-9-------------------------------9---------------------]
A]-7---7-5-7-7-5-7-5---------------7---7-5-7-7-5---------]
E]--------------------7-6-6-5--------------------7-6-5-3-]


e]------------------------------------------------7-6-5-4~----]
B]------------------------------------------------------------]
G]-9---9-7-9-9-7-9-7--------------9---9-7-9-9-7---------------]x2
D]-9------------------9-8-8-7-----9---------------------------]
A]-7------------------------------7---------------------------]
E]------------------------------------------------------------]


e[--------------------------------------------------------------]
B[--------------------------------------------------------------]
G[-------------------------------------------9---7--------------]
D[-2-2----------2-2-----------2-2------------------9-8-7-5------]x2
A[-2-2----------2-2-----------2-2-------------------------------]
E[-0-0----------0-0-----------0-0-------------------------------]
         Yeah!         Ooh!
          Huh!


e[-----------]
B[-----------]
G[-----------]
D[--2-2~-----]
A[--2-2~-----]
E[--0-0~-----]

This was a tab by Ian hope u enjoyed it!!!

This is the "The Last vegas" official website.

www.thelastvegas.com/
Related for Raw Dog tab