Song name
# A B C D E F G H I J K L M N O P Q R S T U V W X Y Z

The Laurels - What She Does To Me tab

                       The Laurels - What She Does to Me
                          from their 2011 EP Mesozoic

Intro:
Guitar 1:
e|-7--7-7-7--7-7---7-7-7--7--7--7-7-7--7-7---7-7-7--7--|
B|-9--9-9-9--9-9---9-9-9--9--7--7-7-7--7-7---7-7-7--7--|
G|-8--8-8-8--8-8---8-8-8--8--8--8-8-8--8-8---8-8-8--8--|                     \
D|-9--9-9-9--9-9---9-9-9--9--9--9-9-9--9-9---9-9-9--9--|                      \
A|-7--7-7-7--7-7---7-7-7--7--9--9-9-9--9-9---9-9-9--9--|                       \
E|---------------------------7--7-7-7--7-7---7-7-7--7--|                        |
                                                                                | x2
e|-10--10-10-10--10-10---10-10-10--10---9---9--9--9---9--9----9--9--9---9--|    |
B|-10--10-10-10--10-10---10-10-10--10--10--10-10-10--10-10---10-10-10--10--|   /
G|-11--11-11-11--11-11---11-11-11--11--11--11-11-11--11-11---11-11-11--11--|  /
D|-12--12-12-12--12-12---12-12-12--12--11--11-11-11--11-11---11-11-11--11--| /
A|-12--12-12-12--12-12---12-12-12--12---9---9--9--9---9--9----9--9--9---9--|
E|-10--10-10-10--10-10---10-10-10--10--------------------------------------|

Guitar 2 plays these chords with a whammy bar technique.
The technique involves slightly dipping your bar, then
striking the chord and raising the bar back up to normal
pitch after striking it. This is a technique that Kevin Shields
from My Bloody Valentine invented and is heavily used in shoegaze music.
e|-7--------7--------10---------9--------|
B|-9--------7--------10--------10--------|
G|-8--------8--------11--------11--------| x2
D|-9--------9--------12--------11--------|
A|-7--------9--------12---------9--------|
E|----------7--------10------------------|

Alternatively, Guitar 2 can also play these unison bends for a similar effect:
e|--------------------------------------------------|
B|-9------------4----------7-----------10-----------|
G|-11b13--------6b8--------9b11--------12b14--------| x2
D|--------------------------------------------------|
A|--------------------------------------------------|
E|--------------------------------------------------|


Verse 2:
"She said she would always be the one,
She meant something else I don't know what"
Guitar 1 plays the same chords as the intro, but with less overdrive:
e|-7--7-7-7--7-7---7-7-7--7--7--7-7-7--7-7---7-7-7--7--|
B|-9--9-9-9--9-9---9-9-9--9--7--7-7-7--7-7---7-7-7--7--|
G|-8--8-8-8--8-8---8-8-8--8--8--8-8-8--8-8---8-8-8--8--|                     \
D|-9--9-9-9--9-9---9-9-9--9--9--9-9-9--9-9---9-9-9--9--|                      \
A|-7--7-7-7--7-7---7-7-7--7--9--9-9-9--9-9---9-9-9--9--|                       \
E|---------------------------7--7-7-7--7-7---7-7-7--7--|                        |
                                                                                | x2
e|-10--10-10-10--10-10---10-10-10--10---9---9--9--9---9--9----9--9--9---9--|    |
B|-10--10-10-10--10-10---10-10-10--10--10--10-10-10--10-10---10-10-10--10--|   /
G|-11--11-11-11--11-11---11-11-11--11--11--11-11-11--11-11---11-11-11--11--|  /
D|-12--12-12-12--12-12---12-12-12--12--11--11-11-11--11-11---11-11-11--11--| /
A|-12--12-12-12--12-12---12-12-12--12---9---9--9--9---9--9----9--9--9---9--|
E|-10--10-10-10--10-10---10-10-10--10--------------------------------------|

Guitar 2 plays these chords with the whammy bar technique:
e|-7--------7--------10---------9--------|
B|-9--------7--------10--------10--------|
G|-8--------8--------11--------11--------| x2
D|-9--------9--------12--------11--------|
A|-7--------9--------12---------9--------|
E|----------7--------10------------------|


Chorus:
"What she does to me it hurts,
I don't feel this way with words,
But I just thought that you would change, 
Now she's killing me again"
Guitar 1:
e|-5--5-5-5--5-5---5-5-5--5--4--4-4-4--4-4---4-4-4--4--2--2-2-2--2-2-|
B|-5--5-5-5--5-5---5-5-5--5--5--5-5-5--5-5---5-5-5--5--4--4-4-4--4-4-|
G|-6--6-6-6--6-6---6-6-6--6--6--6-6-6--6-6---6-6-6--6--4--4-4-4--4-4-|
D|-7--7-7-7--7-7---7-7-7--7--6--6-6-6--6-6---6-6-6--6--4--4-4-4--4-4-|
A|-7--7-7-7--7-7---7-7-7--7--4--4-4-4--4-4---4-4-4--4--2--2-2-2--2-2-|
E|-5--5-5-5--5-5---5-5-5--5------------------------------------------|

--2-2-2--2--2--2-2-2--2-2---2-2-2--2--|
--4-4-4--4--2--2-2-2--2-2---2-2-2--2--|
--4-4-4--4--2--2-2-2--2-2---2-2-2--2--|
--4-4-4--4--4--4-4-4--4-4---4-4-4--4--|
--2-2-2--2--4--4-4-4--4-4---4-4-4--4--|
------------2--2-2-2--2-2---2-2-2--2--|

e|-5--5-5-5--5-5---5-5-5--5--4--4-4-4--4-4---4-4-4--4--2--2-2-2--2-2-|
B|-5--5-5-5--5-5---5-5-5--5--5--5-5-5--5-5---5-5-5--5--4--4-4-4--4-4-|
G|-6--6-6-6--6-6---6-6-6--6--6--6-6-6--6-6---6-6-6--6--4--4-4-4--4-4-|
D|-7--7-7-7--7-7---7-7-7--7--6--6-6-6--6-6---6-6-6--6--4--4-4-4--4-4-|
A|-7--7-7-7--7-7---7-7-7--7--4--4-4-4--4-4---4-4-4--4--2--2-2-2--2-2-|
E|-5--5-5-5--5-5---5-5-5--5------------------------------------------|

--2-2-2--2--5--5-5-5--5-5---5-5-5--5--|
--4-4-4--4--7--7-7-7--7-7---7-7-7--7--|
--4-4-4--4--7--7-7-7--7-7---7-7-7--7--|
--4-4-4--4--7--7-7-7--7-7---7-7-7--7--|
--2-2-2--2--5--5-5-5--5-5---5-5-5--5--|
--------------------------------------|

Guitar 2 plays these chords with the whammy bar technique:
e|-5--------4--------2--------2--------|
B|-5--------5--------4--------2--------|
G|-6--------6--------4--------2--------|
D|-7--------6--------4--------4--------|
A|-7--------4--------2--------4--------|
E|-5--------------------------2--------|

e|-5--------4--------2--------5--------|
B|-5--------5--------4--------7--------|
G|-6--------6--------4--------7--------|
D|-7--------6--------4--------7--------|
A|-7--------4--------2--------5--------|
E|-5-----------------------------------|


Pre-verse:
Guitar 1 and 2 just hit this chord repeatedly:
e|-5-5-5-5-5-5-5-5-5-5-5-5-5-5-5-5-|
B|-5-5-5-5-5-5-5-5-5-5-5-5-5-5-5-5-|
G|-6-6-6-6-6-6-6-6-6-6-6-6-6-6-6-6-|
D|-7-7-7-7-7-7-7-7-7-7-7-7-7-7-7-7-|
A|-7-7-7-7-7-7-7-7-7-7-7-7-7-7-7-7-|
E|-5-5-5-5-5-5-5-5-5-5-5-5-5-5-5-5-|


Verse 2:
"And now, I just wanna feel the same,
As before, 'cause it's all too much to take"
Guitar 1:
e|-7--7-7-7--7-7---7-7-7--7--7--7-7-7--7-7---7-7-7--7--|
B|-9--9-9-9--9-9---9-9-9--9--7--7-7-7--7-7---7-7-7--7--|
G|-8--8-8-8--8-8---8-8-8--8--8--8-8-8--8-8---8-8-8--8--|                     \
D|-9--9-9-9--9-9---9-9-9--9--9--9-9-9--9-9---9-9-9--9--|                      \
A|-7--7-7-7--7-7---7-7-7--7--9--9-9-9--9-9---9-9-9--9--|                       \
E|---------------------------7--7-7-7--7-7---7-7-7--7--|                        |
                                                                                | x2
e|-10--10-10-10--10-10---10-10-10--10---9---9--9--9---9--9----9--9--9---9--|    |
B|-10--10-10-10--10-10---10-10-10--10--10--10-10-10--10-10---10-10-10--10--|   /
G|-11--11-11-11--11-11---11-11-11--11--11--11-11-11--11-11---11-11-11--11--|  /
D|-12--12-12-12--12-12---12-12-12--12--11--11-11-11--11-11---11-11-11--11--| /
A|-12--12-12-12--12-12---12-12-12--12---9---9--9--9---9--9----9--9--9---9--|
E|-10--10-10-10--10-10---10-10-10--10--------------------------------------|

Guitar 2 plays these chords with the whammy bar technique:
e|-7--------7--------10---------9--------|
B|-9--------7--------10--------10--------|
G|-8--------8--------11--------11--------| x2
D|-9--------9--------12--------11--------|
A|-7--------9--------12---------9--------|
E|----------7--------10------------------|


Chorus:
"What she does to me it hurts,
I don't feel this way with words,
But I just thought that you would change, 
Now she's killing me again"
Guitar 1:
e|-5--5-5-5--5-5---5-5-5--5--4--4-4-4--4-4---4-4-4--4--2--2-2-2--2-2-|
B|-5--5-5-5--5-5---5-5-5--5--5--5-5-5--5-5---5-5-5--5--4--4-4-4--4-4-|
G|-6--6-6-6--6-6---6-6-6--6--6--6-6-6--6-6---6-6-6--6--4--4-4-4--4-4-|
D|-7--7-7-7--7-7---7-7-7--7--6--6-6-6--6-6---6-6-6--6--4--4-4-4--4-4-|
A|-7--7-7-7--7-7---7-7-7--7--4--4-4-4--4-4---4-4-4--4--2--2-2-2--2-2-|
E|-5--5-5-5--5-5---5-5-5--5------------------------------------------|

--2-2-2--2--2--2-2-2--2-2---2-2-2--2--|
--4-4-4--4--2--2-2-2--2-2---2-2-2--2--|
--4-4-4--4--2--2-2-2--2-2---2-2-2--2--|
--4-4-4--4--4--4-4-4--4-4---4-4-4--4--|
--2-2-2--2--4--4-4-4--4-4---4-4-4--4--|
------------2--2-2-2--2-2---2-2-2--2--|

e|-5--5-5-5--5-5---5-5-5--5--4--4-4-4--4-4---4-4-4--4--2--2-2-2--2-2-|
B|-5--5-5-5--5-5---5-5-5--5--5--5-5-5--5-5---5-5-5--5--4--4-4-4--4-4-|
G|-6--6-6-6--6-6---6-6-6--6--6--6-6-6--6-6---6-6-6--6--4--4-4-4--4-4-|
D|-7--7-7-7--7-7---7-7-7--7--6--6-6-6--6-6---6-6-6--6--4--4-4-4--4-4-|
A|-7--7-7-7--7-7---7-7-7--7--4--4-4-4--4-4---4-4-4--4--2--2-2-2--2-2-|
E|-5--5-5-5--5-5---5-5-5--5------------------------------------------|

--2-2-2--2--5--5-5-5--5-5---5-5-5--5--|
--4-4-4--4--7--7-7-7--7-7---7-7-7--7--|
--4-4-4--4--7--7-7-7--7-7---7-7-7--7--|
--4-4-4--4--7--7-7-7--7-7---7-7-7--7--|
--2-2-2--2--5--5-5-5--5-5---5-5-5--5--|
--------------------------------------|

Guitar 2 plays these chords with the whammy bar technique:
e|-5--------4--------2--------2--------|
B|-5--------5--------4--------2--------|
G|-6--------6--------4--------2--------|
D|-7--------6--------4--------4--------|
A|-7--------4--------2--------4--------|
E|-5--------------------------2--------|

e|-5--------4--------2--------5--------|
B|-5--------5--------4--------7--------|
G|-6--------6--------4--------7--------|
D|-7--------6--------4--------7--------|
A|-7--------4--------2--------5--------|
E|-5-----------------------------------|


Pre-verse:
Guitar 1 and 2:
e|-5-5-5-5-5-5-5-5-5-5-5-5-5-5-5-5-|
B|-5-5-5-5-5-5-5-5-5-5-5-5-5-5-5-5-|
G|-6-6-6-6-6-6-6-6-6-6-6-6-6-6-6-6-|
D|-7-7-7-7-7-7-7-7-7-7-7-7-7-7-7-7-|
A|-7-7-7-7-7-7-7-7-7-7-7-7-7-7-7-7-|
E|-5-5-5-5-5-5-5-5-5-5-5-5-5-5-5-5-|


Vocal-less verse:
Guitar 1:
e|-7--7-7-7--7-7---7-7-7--7--7--7-7-7--7-7---7-7-7--7--|
B|-9--9-9-9--9-9---9-9-9--9--7--7-7-7--7-7---7-7-7--7--|
G|-8--8-8-8--8-8---8-8-8--8--8--8-8-8--8-8---8-8-8--8--|                     \
D|-9--9-9-9--9-9---9-9-9--9--9--9-9-9--9-9---9-9-9--9--|                      \
A|-7--7-7-7--7-7---7-7-7--7--9--9-9-9--9-9---9-9-9--9--|                       \
E|---------------------------7--7-7-7--7-7---7-7-7--7--|                        |
                                                                                | x3
e|-10--10-10-10--10-10---10-10-10--10---9---9--9--9---9--9----9--9--9---9--|    |
B|-10--10-10-10--10-10---10-10-10--10--10--10-10-10--10-10---10-10-10--10--|   /
G|-11--11-11-11--11-11---11-11-11--11--11--11-11-11--11-11---11-11-11--11--|  /
D|-12--12-12-12--12-12---12-12-12--12--11--11-11-11--11-11---11-11-11--11--| /
A|-12--12-12-12--12-12---12-12-12--12---9---9--9--9---9--9----9--9--9---9--|
E|-10--10-10-10--10-10---10-10-10--10--------------------------------------|

Guitar 2 plays these chords with the whammy bar technique:
e|-7--------7--------10---------9--------|
B|-9--------7--------10--------10--------|
G|-8--------8--------11--------11--------| x3
D|-9--------9--------12--------11--------|
A|-7--------9--------12---------9--------|
E|----------7--------10------------------|


Outro:
Guitar 1 hits these chords repeatedly:
e|-7-7-7-7-7-7-7-7-7-7-7-7-7-7-7-7-7-7-7-7-7-7-7-7-7-7-7-7-7-7-7-7-|
B|-9-9-9-9-9-9-9-9-9-9-9-9-9-9-9-9-7-7-7-7-7-7-7-7-7-7-7-7-7-7-7-7-|
G|-8-8-8-8-8-8-8-8-8-8-8-8-8-8-8-8-8-8-8-8-8-8-8-8-8-8-8-8-8-8-8-8-|
D|-9-9-9-9-9-9-9-9-9-9-9-9-9-9-9-9-9-9-9-9-9-9-9-9-9-9-9-9-9-9-9-9-|
A|-7-7-7-7-7-7-7-7-7-7-7-7-7-7-7-7-9-9-9-9-9-9-9-9-9-9-9-9-9-9-9-9-|
E|---------------------------------7-7-7-7-7-7-7-7-7-7-7-7-7-7-7-7-|

e|-10-10-10-10-10-10-10-10-10-10-10-10-10-10-10-10--9--9--9--9--9--9--9--9--9--9--9--9--9--9--9--9-|
B|-10-10-10-10-10-10-10-10-10-10-10-10-10-10-10-10-10-10-10-10-10-10-10-10-10-10-10-10-10-10-10-10-|
G|-11-11-11-11-11-11-11-11-11-11-11-11-11-11-11-11-11-11-11-11-11-11-11-11-11-11-11-11-11-11-11-11-|
D|-12-12-12-12-12-12-12-12-12-12-12-12-12-12-12-12-11-11-11-11-11-11-11-11-11-11-11-11-11-11-11-11-|
A|-12-12-12-12-12-12-12-12-12-12-12-12-12-12-12-12--9--9--9--9--9--9--9--9--9--9--9--9--9--9--9--9-|
E|-10-10-10-10-10-10-10-10-10-10-10-10-10-10-10-10-------------------------------------------------|


End with this chord:
e|-7----------------|
B|-9----------------|
G|-8----------------|
D|-9----------------|
A|-7----------------|
E|------------------|

End with guitar feedback.



************************************

| /   slide up
| \   slide down
| h   hammer-on
| p   pull-off
| ~   vibrato
| +   harmonic
| x   Mute note
| .   staccato
| b   Bend
| pb  Pre-bend
| br  Bend release
| pbr Pre-bend release
| brb Bend release bend

************************************

http://thelaurels.bandcamp.com/
http://www.riceisnice.net/artists/the-laurels/
Tap to rate this tab
# A B C D E F G H I J K L M N O P Q R S T U V W X Y Z