Song name
# A B C D E F G H I J K L M N O P Q R S T U V W X Y Z

The Leather Uppers - Carne Mysterioso tab

Really easy song to play but really fun as well.
Listen to the song to figure out the rhythm to it.

Main Riff:
e------------------------------------------------|
B---------------------------------5--3--5--------|
G---------------------------------4--2--4--------|
D------------------------------------------------|
A-----2-1-2-----2-2-1-----2-1-2------------------|
E---0---------0---------0------------------------|

Chorus:
e------------------------------------------------|
B------------------------------------------------|
G------------777---------------------------------|
D---5555555555555-555--444444444-----------------|
A---3333333333333-333--222222222-----------------|
E------------------------------------------------|

2nd Riff
e------------------------------------------------|
B---------------------------------6--4--6--------|
G---------------------------------5--3--5--------|
D------------------------------------------------|
A-----3-2-3-----3-3-2-----3-2-3------------------|
E---1---------1---------1------------------------|

Outro:
e------------------------------------------------|
B------------------------------------5--3--5-----|
G------------------------------------4--2--4-----|
D------------------------------------------------|
A------2-1-2------2-2-1------2-1-2---------------|
E---00---------00---------00---------------------|

Order:

Main Riff x4
Chorus
Main Riff x4
Chorus
Main Riff
2nd Riff
Main Riff
Chorus
Outro

Linke to the artist site: https://www.facebook.com/pages/The-Leather-Uppers/314342748605274
Link to the song: http://theleatheruppers.bandcamp.com/album/carne-mysterioso-7
Tap to rate this tab
 
# A B C D E F G H I J K L M N O P Q R S T U V W X Y Z