Song name
# A B C D E F G H I J K L M N O P Q R S T U V W X Y Z

The Left Rights - Im On Crack tab

-------------------------------------------------------------------------------
                             I'M ON CRACK - The Left Rights
-------------------------------------------------------------------------------
Tabbed by: Seismatters
Tuning: Drop D (D A D G B E) 
YouTube Reference Video: http://goo.gl/B1yLH

Riff (Played throughout entire song)
e|---------------------------------------------------------------------------|
B|---------------------------------------------------------------------------|
G|-0--2-3--------------------------------------------------------------------|
D|--------3--3-2-0--0---0-0----0---------------------------------------------|
A|--------------------3------3-----------------------------------------------|
E|---------------------------------------------------------------------------|

Chorus Riff
e|---------------------------------------------------------------------------|
B|---------------------------------------------------------------------------|
G|---------------------------------------------------------------------------|
D|-5-5-5-5-3-3-3-3-0-0-0-0-0-0-0-0-------------------------------------------|
A|-5-5-5-5-3-3-3-3-0-0-0-0-0-0-0-0-------------------------------------------|
E|-5-5-5-5-3-3-3-3-0-0-0-0-0-0-0-0-------------------------------------------|

Second Chorus Riff (Played during the 'wooooooooooooooah' parts)
e|---6-8-6-5-----------------------------------------------------------------|
B|-8---------6-6-8-10--------------------------------------------------------|
G|-----------------------7-7-9-10-7------------------------------------------|
D|---------------------------------------------------------------------------|
A|---------------------------------------------------------------------------|
E|---------------------------------------------------------------------------|
Tap to rate this tab
 
# A B C D E F G H I J K L M N O P Q R S T U V W X Y Z