Guitaretab - guitar tabs
Song name
# A B C D E F G H I J K L M N O P Q R S T U V W X Y Z

The Legendary Shack Shakers - Agony Wagon tab

http://www.cockadoodledont.com/

ďAgony WagonĒ
by The Legendary Shack Shakers
from the album ĎBelieveí
tabbed by Eric Bonkowski
     
intro:
Am Am E Am
   
Chorus riff:
    Am         Dm           E           Am                      
|-----------------------------------------------------------|
|------5-6-5----5-6-----------------------------------------|
|-------------------7--------7--7-5-4-5---------------------|
|---7---------7--------7-7-7------------7-------------------|
|-----------------------------------------------------------|
|-----------------------------------------------------------|
 
  Dm                   Am
What evil star burns bright my old flame
     E                 Am
And wilted my rose of Jericho
       Dm                           Am
Whose glare killed the prayer last parted from her lips
     E                 Am
And lit the path to churchyards untold?
     Dm                           Am
The pitter and the patter of her dance once whirled away
     E                            Am
The eve like a dream of youthful bloom
    Dm                             Am
But now the iron clatter of my godforsaken woe
  E                               Am
Echoes ancient tones of shackled doom
[ Tab from: http://www.guitaretab.com/t/the-legendary-shack-shakers/98311.html ]
 G                    Am
Iíll ride this Agony Wagon
  G                      Am
Forever to Heaven or to Hell
  G                  Am
Iíll ride this agony wagon
  G                                 E 
My bones are damned to roam these rusty rails

     interlude:
|----------------------------------------------------------|
|----------------------------------------------------------|
|----------------------------------------------------------|
|------------------------------------------------x2--------|
|--5-5-7ó7h8-7-5-7-----------------------------------------|
|------------------8-5-----7-7-8-8h10-8-7-5----------------|

       - repeat chorus -

 Dm                          Am
What unholy haint rakes the Devilís lyre
      E                             Am
And dumbs the din of joybells in my soul
 Dm                           Am
Who in silent gloom arrives snapping thicket underfoot
      E                                Am
In moonless mist to light my carriage coals?
    Dm                                Am
So into the shady dank of St. Judeís garden stairs
 E                               Am
East of the sun and west of the moon
 Dm                                      Am
Where her secret crypt of nightshade is shut inside his mind
 E                                  Am
Locked tighter than a toddler in a tomb.

 G                     Am
Iíll ride this Agony Wagon
  G                      Am
Forever to Heaven or to Hell
 G                     Am
Iíll ride this agony wagon
 G                                       E
My bones are damned to roam these rusty rails



http://www.cockadoodledont.com/
Related for Agony Wagon tab