Song name
# A B C D E F G H I J K L M N O P Q R S T U V W X Y Z

The Legendary Shack Shakers - Pinetree Boogie tab

http://www.cockadoodledont.com/

“Pinetree Boogie”
by The Legendary Shack Shakers
from the album ‘Cockadoodledont’
tabbed by Eric Bonkowski
       
     intro/verse:                     
|-----------------------------------------------------------|
|-----------------------------------------------------------|
|-----------------------------------------------------------|
|-----------------5-5-5-------------------------------------|
|------5-6-7--7-7-------7------5-6-7--7-7-------------------|
|---7------------------------7-------------3-3-3-0----------|
 
Got an eyeful of moonlight 
Shine down through the trees 
Fell down by my bedside 
All moony for sleep 
But I woke right up, yall 
Just to cut my hair 
Don't want no whippoorwills 
To make a nest in there. 
So I burned 'em up, boys, 
Like the colored man said 
Got a garnet gem, ya'll, 
Bound around my head. 
Now I'm nestin' high 
Them needles underneath 
The Lord likes the pines y'all 
Best of all his trees.


     turnaround:
|----------------------------------------------------------|
|----------------------------------------------------------|
|----------------------------------------------------------|
|----2p0---0--2-2p0---0--2--2-2-2-2-2----------------------|
|--------2----------2-------x-x-x-x-x----------------------|
|---------------------------0-0-0-0-0----------------------|
 

Pinetree Boogie, Pinetree Boogie, Pinetree Boogie 
Do it all night lo-o-o-o-o-o-o-o-o-ooh, all night long 
Do it all night long, y'all 
Do it all night long 
Do it all night long

                
    “pinetree boogie!”    “I do it all night long...”
|----------------------------------------------------------|
|----------------------------------------------------------|
|--------------------------9-9-9-8-8-8-7-7-7-6-------------|
|------------5b------x3----9-9-9-8-8-8-7-7-7-6-------------|
|---7—7p5------------------7-7-7-6-6-6-5-5-5-4-------------|
|---------7-------------------------------------pick-slide-|


http://www.cockadoodledont.com/
Tap to rate this tab
 
# A B C D E F G H I J K L M N O P Q R S T U V W X Y Z