Song name
# A B C D E F G H I J K L M N O P Q R S T U V W X Y Z

The Legends - Call It Ours tab

The strum for this is d d d d u u u d (d=down u=up)

Chords:

Verse

   A          Bm           D
e|-0----------2------------2-------|
B|-2----------3------------3-------|
G|-2----------4------------2-------|
D|-2----------4------------0-------|
A|-0-------------------------------|
E|---------------------------------|

Chorus (same strum)
     G      Em      D      C
e|---3------0-------2------0--------|
B|---3------0-------3------1--------|
G|---0------0-------2------0--------|
D|---0------2-------0------2--------|
A|---2------2--------------3--------|
E|---3------0-----------------------|

Solo:

e|--9--9--7--9--9--9--7--7--5--5-----------5-----5--5--5--7--7--5-----|
B|--------------------------------7--7--7-----7-----------------------|
G|--------------------------------------------------------------------|
D|--------------------------------------------------------------------|
A|--------------------------------------------------------------------|
E|--------------------------------------------------------------------|

Very easy song to play. Listen to the legends they are fantastic!

http://www.labrador.se/releases/legends.php3
Tap to rate this tab
# A B C D E F G H I J K L M N O P Q R S T U V W X Y Z