Song name
# A B C D E F G H I J K L M N O P Q R S T U V W X Y Z

The Leisure Society - The Sleeper tab

Just the basic melody. The bass plays a G root throughout and there is another guitar 
some picking. Such an immense song (& band)!


e |-----3-----------5-----7-----2---------0-----------|
b |---------------------------------------------------|
g |---------------------------------------------------|
d |---------------------------------------------------|
a |---------------------------------------------------|
E |---------------------------------------------------|
        G
e |-----3-----------5-----7-----10--------------------|
b |---------------------------------------------------|
g |---------------------------------------------------|
d |---------------------------------------------------|
a |---------------------------------------------------|
E |---------------------------------------------------|

e |-----3-----------5-----7-----2---------0-----------|
b |---------------------------------------------------|
g |---------------------------------------------------|
d |---------------------------------------------------|
a |---------------------------------------------------|
E |---------------------------------------------------|

e |---------------------------------------------------|
b |-----3-----------3-3h5-3---------------------------|
g |---------------------------------------------------|
d |---------------------------------------------------|
a |---------------------------------------------------|
E |---------------------------------------------------|

http://www.theleisuresociety.co.uk/
Tap to rate this tab
# A B C D E F G H I J K L M N O P Q R S T U V W X Y Z