The Lemon Pipers - Green Tambourine tab

Intro

E  :----------------|----------------|----------------|--1-------------|
B  :0-----0--1--3---|3-1-0---0-------|-------0----0-1-|3-------3---1---|
G  :----------------|----------3-2-0-|0-2-3-----------|----------------|
D  :----------------|----------------|----------------|----------------|
A  :----------------|----------------|----------------|----------------|
E  :----------------|----------------|----------------|----------------|

E  :----------------|
B  :0---0-----------|
G  :-------3--2--0--|
D  :----------------|
A  :----------------|
E  :----------------|
Tap to rate this tab
 
# A B C D E F G H I J K L M N O P Q R S T U V W X Y Z