The Letter Black - Different Face tab

Its my first tab, i have hope that this tab is correct
-------------------------------------------------------------------------------
			     DIFFERENT FACE - THE LETTER BLACK
-------------------------------------------------------------------------------
Tabbed by: Karlos1207

Tuning: Drop D Tuning


0:00 - 0:09
e|---------------------------------------------------------------------------|
B|---------------------------------------------------------------------------|
G|---------------------------------------------------------------------------|
D|-4-44-4------7-77-7----2-22-2----------------------------------------------|
A|-4-44-4--x2--7-77-7----2-22-2----------------------------------------------|
D|-4-44-4------7-77-7----2-22-2----------------------------------------------|


0:09 - 0:19
e|---------------------------------------------------------------------------|
B|---------------------------------------------------------------------------|
G|---------------------------------------------------------------------------|
D|-4-44-4-4-4-4-xx-2------7-77-7-7-7-7-xx-2---2-22-2-2-2-2-0-2-4-------------|
A|-4-44-4-4-4-4-xx-2--x2--7-77-7-7-7-7-xx-2---2-22-2-2-2-2-0-2-4-------------|
D|-4-44-4-4-4-4-xx-2------7-77-7-7-7-7-xx-2---2-22-2-2-2-2-0-2-4-------------|


Good luck
Tap to rate this tab
 
# A B C D E F G H I J K L M N O P Q R S T U V W X Y Z