The Letter Black - Hanging On By A Thread tab

The Letter Black
Hanging On By A Thread
By: Fragments001

Gtr 1: Rhythem
Gtr 2: Lead


Intro

Gtr 1
d#|----------------------------------------------|
A#|----------------------------------------------|
F#|-------3333-55555-----------------------------|
C#|-00000-3333-55555-332-------------------------|
G#|-00000-1111-33333-332-------------------------|
C#|-00000------------332-------------------------|

d#|----------------------------------------------|
A#|----------------------------------------------|
F#|-------3333-5---------------------------------|
C#|-00000-3333-5---------------------------------|
G#|-00000-1111-3---------------------------------|
C#|-00000----------------------------------------|

Gtr 2
d#|----------------------------------------------|
A#|------8/10\8----------------------------------|
F#|--5/7--------10\9~-9/10\9---------------------|
C#|----------------------------------------------|
G#|----------------------------------------------|
C#|----------------------------------------------|

d#|--------------8-------------------------------|
A#|------8/10\8----8-----------------------------|
F#|--5/7-----------------------------------------|
C#|----------------------------------------------|
G#|----------------------------------------------|
C#|----------------------------------------------|

Verse

Gtr 1
d#|----------------------------------------------|
A#|----------------------------------------------|
F#|----------------------------------------------|
C#|-3020-020-02030-020-020-0203------------------|
G#|-3020-020-02030-020-020-0203------------------|
C#|-3020-020-02030-020-020-0203------------------|  x4

Pre Chorus

Gtr 2
d#|----------------------------------------------|
A#|----------------------------------------------|
F#|---------------------------5---5--------------|
C#|-----7-5-7-----7-5-7---------5---5------------|
G#|--88-------8-8---------88---------------------|
C#|----------------------------------------------|

Chorus

Gtr 1
d#|----------------------------------------------|
A#|----------------------------------------------|
F#|-------3333-55555-----------------------------|
C#|-00000-3333-55555-332-------------------------|
G#|-00000-1111-33333-332-------------------------|
C#|-00000------------332-------------------------| x3

d#|----------------------------------------------|
A#|----------------------------------------------|
F#|-------3333-5--5------------------------------|
C#|-00000-3333-5--5--let ring--------------------|
G#|-00000-1111-3--3------------------------------|
C#|-00000----------------------------------------| 

Pre Verse

Gtr 1
d#|----------------------------------------------|
A#|----------------------------------------------|
F#|----------------------------------------------|
C#|-3020-020-02030-020-020-0203------------------|
G#|-3020-020-02030-020-020-0203------------------|
C#|-3020-020-02030-020-020-0203------------------|

Gtr 2
d#|-----10-10-12-10-12-13-15-13------------------|
A#|----------------------------------------------|
F#|----------------------------------------------|
C#|----------------------------------------------|
G#|----------------------------------------------|
C#|----------------------------------------------|

Verse
Gtr 1
d#|----------------------------------------------|
A#|----------------------------------------------|
F#|----------------------------------------------|
C#|-3020-020-02030-020-020-0203------------------|
G#|-3020-020-02030-020-020-0203------------------|
C#|-3020-020-02030-020-020-0203------------------| x4

Pre Chorus

Gtr 2
d#|----------------------------------------------|
A#|----------------------------------------------|
F#|---------------------------5---5--------------|
C#|-----7-5-7-----7-5-7---------5---55555--------|
G#|--88-------8-8---------88---------------------|
C#|----------------------------------------------|

Chorus

Gtr 1
d#|----------------------------------------------|
A#|----------------------------------------------|
F#|-------3333-55555-----------------------------|
C#|-00000-3333-55555-332-------------------------|
G#|-00000-1111-33333-332-------------------------|
C#|-00000------------332-------------------------| x4

Bridge

Gtr 1
d#|----------------------------------------------|
A#|----------------------------------------------|
F#|-33333333-22222222-----------5555-------------|
C#|-33333333-22222222-0000-3333-5555-5555--------|
G#|-11111111-00000000-0000-3333-3333-5555--------|
C#|-------------------0000-3333------5555--------| x2

Gtr 2 Acoustic
d#|---00000--------------------------------------|
A#|---33333--------------------------------------|
F#|---22222--3333--5-----------------------------|
C#|---00000--3333--5--let ring---EPIC PICK SLIDE-|
G#|---00000--1111--3-----------------------------|
C#|----------------------------------------------|


Chorus

Gtr 1
d#|----------------------------------------------|
A#|----------------------------------------------|
F#|-------3333-55555-----------------------------|
C#|-00000-3333-55555-332-------------------------|
G#|-00000-1111-33333-332-------------------------|
C#|-00000------------332-------------------------|

d#|----------------------------------------------|
A#|----------------------------------------------|
F#|-------3333-5--5------------------------------|
C#|-00000-3333-5--3--PICK SLIDE------------------|
G#|-00000-1111-3--3------------------------------|
C#|-00000----------------------------------------|

d#|----------------------------------------------|
A#|----------------------------------------------|
F#|-------3333-55555-----------------------------|
C#|-00000-3333-55555-332-------------------------|
G#|-00000-1111-33333-332-------------------------|
C#|-00000------------332-------------------------| x3

d#|----------------------------------------------|
A#|----------------------------------------------|
F#|-------3333-5---------------------------------|
C#|-00000-3333-5---------------------------------|
G#|-00000-1111-3---------------------------------|
C#|-00000----------------------------------------|

Outro

Gtr 1
d#|----------------------------------------------|
A#|----------------------------------------------|
F#|----------------------------------------------|
C#|-3020-020-02030-020-020-0203------------------|
G#|-3020-020-02030-020-020-0203------------------|
C#|-3020-020-02030-020-020-0203------------------|

Gtr 1
d#|----------------------------------------------|
A#|----------------------------------------------|
F#|----------------------------------------------|
C#|-3020-020-02030-020-000-000-000---------------|
G#|-3020-020-02030-020-000-000-000---------------|
C#|-3020-020-02030-020-000-000-000---------------|


Gtr 2
d#|-----10-10-12-10-12-13-15-13------------------|
A#|----------------------------------------------|
F#|----------------------------------------------|
C#|----------------------------------------------|
G#|----------------------------------------------|
C#|----------------------------------------------|


d#|-----10-10-12-10-12-13------------------------|
A#|----------------------------------------------|
F#|----------------------------------------------|
C#|----------------------------------------------|
G#|----------------------------------------------|
C#|----------------------------------------------|
Tap to rate this tab
 
# A B C D E F G H I J K L M N O P Q R S T U V W X Y Z