Song name
# A B C D E F G H I J K L M N O P Q R S T U V W X Y Z

The Letter Black - My Disease tab

So this tab, its a little different but I thing it sounds good ^.^

contact me on Xbox ^.^ XxLoneWolf541xX

use loads of wah, lol but sounds good without it.
b----------------------------------------------------------13br-|
g--------10h-12-12b-10-----------------10h-12-12b-10-----12-----|
d-10h-12---------------12-------10h-12---------------12---------|
a---------------------------------------------------------------|
d---------------------------------------------------------------|

e---------------------------------------------------|
b---------------------------------------------------|
g--------10h-12-12b-10---------10h-12-12b-10--------|
d-10h-12--------------12--10h-12---------------12---|
a---------------------------------------------------|
d---------------------------------------------------|


e------13-13-12-12-------------13-13-12-12--------------|
b------------------13-13-10-10--------------13-13-15-15-|
g-------------------------------------------------------|
d-------------------------------------------------------|
a-------------------------------------------------------|
d-------------------------------------------------------|


I don't really know the end, so I made one up that sounds pretty good.

hammer on and pull off these


e-----------10-13-10-----------10-13-10--------13-15-13-------13-15-13--3----|
b-10-13-10-----------10-13-10----------13-15-13--------13-15-13--------------|
g----------------------------------------------------------------------------|
d----------------------------------------------------------------------------|
a----------------------------------------------------------------------------|
d----------------------------------------------------------------------------|

Made by Steven

b= bend
r= return bend
*= Artificial/Pinch Harmonic (let thumb hit string right after pick to squeal)
Tap to rate this tab
# A B C D E F G H I J K L M N O P Q R S T U V W X Y Z