Song name
# A B C D E F G H I J K L M N O P Q R S T U V W X Y Z

The Like - Wishing He Was Dead tab

-----------------------------------------------------------------
Wishing He was Dead – The Like
-----------------------------------------------------------------
Tabbed by: JBTheLefty
Email: jsb111093@gmail.com
Tuning: Standard (EADGBe)
My friend asked me to tab this out for her, and it was pretty fun.
Guys, If your girlfriend learns this song, you better run and/or apologize.
Im pretty sure this is accurate, but if you have any corrections, please
put them in the comments.
Played with distortion.
If the tab appears strange in some places, just follow the chord letters.

Intro: (x2)
E|---------------------------------------------------------------|
B|---------------------------------------------------------------|
G|--5------5-5-5------5--5--5-5----------------------------------|
D|---------------------------------------------------------------|
A|---------------------------------------------------------------|
E|---------------------------------------------------------------|

Verse: (Guitar 1)
E|---------------------------------------------------------------|
B|---------------------------------------------------------------|
G|--5-5-55-3-0---(x3)--------5-5-55-3-0-3-5-(Fourth Time)--------|
D|---------------------------------------------------------------|
A|---------------------------------------------------------------|
E|---------------------------------------------------------------|

Verse: (Guitar 2) Transposed from Synthesizer
       Cm                OR             Cm*
E|------3--------------------------------8-----------------------|
B|------4--------------------------------8-----------------------|
G|------5--------------------------------8-----------------------|
D|------5-------------------------------10-----------------------|
A|------3-------------------------------10-----------------------|
E|---------------------------------------8-----------------------|
*This one sounds better.
When strummed out completely, you get the high C that’s heard on the record.

Pre-Chorus: (x2)
       G          Ab       Fm
E|-----3----------4--------1-------------------------------------|
B|-----3----------4--------1-------------------------------------|
G|-----4----------5--------1-------------------------------------|
D|-----5----------6--------3-------------------------------------|
A|-----5----------6--------3-------------------------------------|
E|-----3----------4--------1-------------------------------------|




Chorus: (Play each sequence like the first one, except last two)
      Cm                 Eb          Ab          F#    G
E|---------------------------------------------------------------|
B|---------------------------------------------------------------|
G|------------------------8-----13---------11111111--12----------|
D|----10—10—10-10---13----8-----13----6----12121212*-12----------|
A|----10—10—10-10---13----6-----11----6-----9-9-9-9--10----------|
E|-----8—-8--8--8---11----------------4--------------------------|
                (Either one of these will do for Eb, Ab)

*12 can be played as an 11, this’ll make it easier for beginners.

      Chorus: F# and G (Alternate)
E|---------------------------------------------------------------|
B|---------------------------------------------------------------|
G|---------------------------------------------------------------|
D|------4444--5--------------------------------------------------|
A|------5555*-5--------------------------------------------------|
E|------2222--3--------------------------------------------------|
*5 can be played as a 4, this’ll make it easier for beginners.

Bridge: (Guitar 1)
E|---------------------------------------------------------------|
B|---------------------------------------------------------------|
G|-----5-/8*-7-4-0-------5-/8-7-----------5-/8-7-4-0-------5-/8--|
D|-3-6-------------2-3-6--------------3-6------------2-3-6-------|
A|---------------------------------------------------------------|
E|---------------------------------------------------------------|
*Slide to 8 

E|---------------------------------------------------------------|
B|------6-8-------------Back To----------------------------------|
G|--7-4-----------------Chorus-----------------------------------|
D|---------------------------------------------------------------|
A|---------------------------------------------------------------|
E|---------------------------------------------------------------|

Bridge: (Guitar 2)
       Ab   G
E|------4---3----------------------------------------------------|
B|------4---3------------Back To---------------------------------|
G|------5---4—(x4)-------Chorus----------------------------------|
D|------6---5----------------------------------------------------|
A|------6---5----------------------------------------------------|
E|------4---3----------------------------------------------------|

Outro:
        Fm       G       Cm 
E|-------1-------3--------8--------------------------------------|
B|-------1-------3--------8--------------------------------------|
G|-------1-------4--------8--------------------------------------|
D|-------3-------5-------10--------------------------------------|
A|-------3-------5-------10--------------------------------------|
E|-------1-------3--------8--------------------------------------|
Tap to rate this tab
# A B C D E F G H I J K L M N O P Q R S T U V W X Y Z