Song name
# A B C D E F G H I J K L M N O P Q R S T U V W X Y Z

The Lillingtons - Black Hole In My Mind tab

Intro
|-----------------------------------|
|-----------------------------------|
|-----------------------------------|
|-----------------------------------|
|45545554555455545554555455545554---|
|23323332333233323332333233323332---|

Verse:
 They used to call me Captain Scott
|------------------------------------------|
|------------------------------------------|
|------------------------------------------|
|----------------8-888888------------------|
|5-5555555555555-6-666666-8-888888---------|
|3-3333333333333----------6-666666---------|

 I used to be an astronaut
|------------------------------------------|
|------------------------------------------|
|------------------------------------------|
|----------------8-888888------------------|
|5-5555555555555-6-666666-8-888888---------|
|3-3333333333333----------6-666666---------|

 Put me on a rocket into space
|------------------------------------------|
|------------------------------------------|
|------------------------------------------|
|----------------8-888888------------------|
|5-5555555555555-6-666666-8-888888---------|
|3-3333333333333----------6-666666---------|

 And now I'm lost without a trace
|------------------------------------------|
|------------------------------------------|
|------------------------------------------|
|----------------8-888888------------------|
|5-5555555555555-6-666666-8-888888---------|
|3-3333333333333----------6-666666---------|

Pre-chorus:
 And now I'm really out of sight
|----------------------------------|
|----------------------------------|
|----------------------------------|
|8-888888--------------------------|
|6-666666-8-888888-4554555455545554|
|---------6-666666-2332333233323332|

 And now nothings gonna be alright yeah
|------------------------------------------|
|------------------------------------------|
|------------------------------------------|
|8-888888----------------------------------|
|6-666666-8-888888-4-44444444444-----------|
|---------6-666666-2-22222222222-----------|

Chorus: x4
My life has been a waste of time
|------------------|
|------------------|
|------------------|
|---------8-888888-|
|5-555555-6-666666-|
|3-333333----------|

I've got a black hole in my mind
|-----------------|
|-----------------|
|-----------------|
|-----------------|
|8-888888-7-777777|
|6-666666-5-555555|

Solo:
(Not Sure Tab)

Solo 2:
In my mind
(not sure tab)

End Chorus: x4
My life has waste of time
I've got a black hole in mind
(Bass and Drums Only)

Ending: x4
Mind, I've got a black hole in my mind
|-----------------------------------|
|-----------------------------------|
|-----------------------------------|
|---------8-888888------------------|
|5-555555-6-666666-8-888888-7-777777|
|3-333333----------6-666666-5-555555|


Order:
Intro x1
Verse x1
Pre-Chorus x1
Chorus x4
Solo
Intro x1
Verse x1
Pre-chorus x1
Chorus x4
Solo 2 
End Chorus x4
Ending x4


Tap to rate this tab
 
# A B C D E F G H I J K L M N O P Q R S T U V W X Y Z