Song name
# A B C D E F G H I J K L M N O P Q R S T U V W X Y Z

The Lillingtons - Black Hole In My Mind tab

Band: Lillingtons, The
Title: Black Hole In My Mind
Tabbed By: Pirate_punker

Intro:
|------|            |---|
|------|            |---|
|------| x8 end on  |---|
|4-5-5-|            |-4-|
|4-5-5-|            |-4-|
|2-3-3-|            |-2-|

VERSE:
|------------------------------------------|
|------------------------------------------|
|----------------8-888888------------------| x4
|5-5555555555555-8-888888-8-888888---------|
|5-5555555555555-6-666666-8-888888---------|
|3-3333333333333----------6-666666---------|

|-----------------------------------|
|-----------------------------------|
|8-888888---------------------------|
|8-888888-8-888888-45554555455545554|
|6-666666-8-888888-45554555455545554|
|---------6-666666-23332333233323332|

|------------------------------------------|
|------------------------------------------|
|8-888888----------------------------------|
|8-888888-8-888888-4-44444444444-----------|
|6-666666-8-888888-4-44444444444-----------|
|---------6-666666-2-22222222222-----------|

CHORUS A:
|-----------------------------------|
|-----------------------------------|
|---------8-888888------------------| x4
|5-555555-8-888888-8-888888-7-777777|
|5-555555-6-666666-8-888888-7-777777|
|3-333333----------6-666666-5-555555|

SOLO 1:
|-----------------------------------------------------------|
|-8888888888888888------------------------------------------|
|-7777777777777777-7-8-7-------7-8-7---7-8------------------|
|------------------------8-888-------10---------------------| x2
|-----------------------------------------------------------|
|-----------------------------------------------------------|

|Second guitar plays chorus during solo|
|End on: |---| Then play verse from |------(...)|
         |---|                      |------(...)|
         |---|                      |-8-888(...)|
         |-5-|                      |-8-888(...)|
         |-5-|                      |-6-666(...)|
         |-3-|                      |------(...)|
VERSE

CHORUS A

SOLO 2:
Guitar 1:
|------------------------------------------------------|
|------------------------------------------------------|
|--------------7-8-7-------7-8-7---7-8-----------------|
|-------------------8-888-------10---------------------| x2
|------------------------------------------------------|
|------------------------------------------------------|
Guitar 2:
|------------------------------------------------------|
|------------------------------------------------------|
|------------------------------------------------------|
|5-----------------------------------------------------| x2
|5-let ring--------------------------------------------|
|3-----------------------------------------------------|

CHORUS B: Only guitar and bass

CHORUS A: x4

END
Tap to rate this tab
 
# A B C D E F G H I J K L M N O P Q R S T U V W X Y Z