Song name
# A B C D E F G H I J K L M N O P Q R S T U V W X Y Z

The Lillingtons - Russian Attack tab

Intro

e|0-0--0-----0-0--0--------------------------------12-------------------------|
B|-------12---------12-----12-14-15-14-12-10-14-12----12-14-15-14-12-10-14-12-|
G|----------------------------------------------------------------------------| x2
D|----------------------------------------------------------------------------|
A|----------------------------------------------------------------------------|
E|----------------------------------------------------------------------------|

Verse

e|------------------------------------------|
B|------------------------------------------|
G|99999999-7-99999999-55555555------7777----|
D|99999999-7-99999999-55555555-5555-7777----| x2
A|77777777-5-77777777-33333333-5555-5555----|
E|-----------------------------3333---------|

Chorus

e|------------------------------------------|
B|------------------------------------------|
G|9-9999--12--7-7777--12--5-5555--77777777--|
D|9-9999--12--7-7777--12--5-5555--77777777--| x2
A|7-7777--10--5-5555--10--3-3333--55555555--|
E|------------------------------------------|

Repeat:
Introx2
Versex2
Chorusx4

Ending

e|----------------------------------|
B|----------------------------------|
G|7--12--9--------------------------|
D|7--12--9--------------------------|
A|5--10--7--------------------------|
E|----------------------------------|
Tap to rate this tab
 
# A B C D E F G H I J K L M N O P Q R S T U V W X Y Z