Song name
# A B C D E F G H I J K L M N O P Q R S T U V W X Y Z

The Lillingtons - Russian Attack tab

Russian Attack Standard EADGBe Tuning:

Intro:
E-----------------------------------------------|
A-----------------------------------------------|
D-----------------------------------------------|   X2
G-----------------------------------------------|
B--5--5-----5--5-----5--7--8--7--5--3--7--5-----|
e------7--------7-------------------------------|

E-----------------------------------------------|
A-----------------------------------------------|
D-----------------------------------------------|
G-----------------------------------------------|
B-------5--7--8--7--5--3--7--5------------------|
e-----------------------------------------------|

Verse:
"They Came from the skies with their parachutes on"

E--------------------------------------------------|
A------7-7-7-7-7-7-7-7-7-7-7-7-7-------------------|
D------9-9-9-9-9-9-9-9-9-9-9-9-9-------------------|
G--------------------------------------------------|
B--------------------------------------------------|
e--------------------------------------------------|

"Soviet Troops, Operation Red Dawn"

E--------------------------------------------------|
A----3-3-3-3-3-3-3-3-3-3-3-3-3-3-------------------|
D----5-5-5-5-5-5-5-5-5-5-5-5-5-5-------------------|
G--------------------------------------------------|
B--------------------------------------------------|
e--------------------------------------------------|

"Bolsivek Commies,From the Cold War"

E----3-3-3-3-3-3-3-3-3-3-3-3-3-3-------------------|
A----5-5-5-5-5-5-5-5-5-5-5-5-5-5-------------------|
D--------------------------------------------------|
G--------------------------------------------------|
B--------------------------------------------------|
e--------------------------------------------------|

"Back to Attack The American Shore"

E--------------------------------------------------|
A----5-5-5-5-5-5-5-5-5-5-5-5-5-5-------------------|
D----7-7-7-7-7-7-7-7-7-7-7-7-7-7-------------------|
G--------------------------------------------------|
B--------------------------------------------------|
e--------------------------------------------------|

Repeat Verse But replace Lyrics with:

"They came from the Water in their Submarines,
Soviet Troops packed like Sardines,
50 States under Red Alert
Ready to face the Communist Troops,
GO!!!"

Chorus:
E-------------------------------------------------|
A----7---7/10----10/5--5/10--10/3-----------------|
D----9---9/12----12/7--7/12--12/5-----------------|
G-------------------------------------------------|
B-------------------------------------------------|
e-------------------------------------------------|

"RUSSIAN ATTACK!!!!"

E------------------------------------------------|
A---5-5-5-5-5-5-5-5-5-5-5------------------------|
D---7-7-7-7-7-7-7-7-7-7-7------------------------|
G------------------------------------------------|
B------------------------------------------------|
e------------------------------------------------|

(Repeat)

(Then Repeat the entire song, that's it don't even change the lyrics)
Hope you enjoyed,And if it was Toy Soldiers that brought you here hope you enjoyed that too.
Tap to rate this tab
# A B C D E F G H I J K L M N O P Q R S T U V W X Y Z