Song name
# A B C D E F G H I J K L M N O P Q R S T U V W X Y Z

The Lillingtons - All I Hear Is Static tab

Finally,I can now share This awesomeness with the masses,Enjoy........

Standard Tuning:

Opening/Post Riff (X2)
e|---------------------------------------------------------------------------|
B|---------------------------------------------------------------------------|
G|---------------------------------------------------------------------------|
D|-7-7-7-7-7-7-7-7-7---------------------------------------------------------|
A|-5-5-5-5-5-5-5-5-5-7-7-7-7-7-7-7-7-7-9-9-9-9-9-9-9-9-7-7-7-7-7-7-7-7-7-----|
E|-------------------5-5-5-5-5-5-5-5-5-7-7-7-7-7-7-7-7-5-5-5-5-5-5-5-5-5-----|

e|-----------------------------------------------| The guitarist plays to the
B|-----------------------------------------------| Lyrics, so you'll know when
G|-----------------------------------------------| to change....
D|-----------------------------------------------|
A|-5-5-5-5-5-5-5-5-5-5-5-------------------------|
E|-3-3-3-3-3-3-3-3-3-3-3-------------------------|


Verse: (X2)
e|---------------------------------------------------------------------------|
B|---------------------------------------------------------------------------|
G|---------------------------------------------------------------------------|
D|-7-7-7-7-7-7-7-7-7-7-7-----------------------------------------------------|
A|-5-5-5-5-5-5-5-5-5-5-5-7-7-7-7-7-7-7-7-7-7-7-5-5-5-5-5-5-5-5-5-5-5---------|
E|-----------------------5-5-5-5-5-5-5-5-5-5-5-3-3-3-3-3-3-3-3-3-3-3---------|


Post Verse/Pre Riff:
e|---------------------------------------------------------------------------|
B|---------------------------------------------------------------------------|
G|---------------------------------------------------------------------------|
D|-------------------------------------------7-7-7-7-7-7-7-7-7---------------|
A|-9-9-9-9-9-9-9-9-9-9-9-7-7-7-7-7-7-7-7-7-7-5-5-5-5-5-5-5-5-5-5-5-5-5-5-5-5-|
E|-7-7-7-7-7-7-7-7-7-7-7-5-5-5-5-5-5-5-5-5-5-------------------3-3-3-3-3-3-3-|

e|---------------------------------------------------------------------------|
B|---------------------------------------------------------------------------|
G|---------------------------------------------------------------------------|
D|---------------------------------------------------------------------------|
A|-7-7-7-7-7-7-7-7-7---------------------------------------------------------|
E|-5-5-5-5-5-5-5-5-5---------------------------------------------------------|


Riff/Solo 1 (X2)
e|---5-3-2-3-2---5-3-2-3-2---5-3-2-3-2-3-2------------| the last one sounds
B|-3-----------3-----------3---------------3----------| different to the rest of
G|----------------------------------------------------| notes, because it needs
D|----------------------------------------------------| the last bit to be done
A|----------------------------------------------------| quickly, listen to the
E-----------------------------------------------------| 
song if you have a problem listen to the song.

Opening/Post Riff (X2)
e|---------------------------------------------------------------------------|
B|---------------------------------------------------------------------------|
G|---------------------------------------------------------------------------|
D|-7-7-7-7-7-7-7-7-7---------------------------------------------------------|
A|-5-5-5-5-5-5-5-5-5-7-7-7-7-7-7-7-7-7-9-9-9-9-9-9-9-9-7-7-7-7-7-7-7-7-7-----|
E|-------------------5-5-5-5-5-5-5-5-5-7-7-7-7-7-7-7-7-5-5-5-5-5-5-5-5-5-----|

e|-----------------------------------------------|
B|-----------------------------------------------|
G|-----------------------------------------------|
D|-----------------------------------------------|
A|-5-5-5-5-5-5-5-5-5-5-5-------------------------|
E|-3-3-3-3-3-3-3-3-3-3-3-------------------------|


Verse: (X2)
e|---------------------------------------------------------------------------|
B|---------------------------------------------------------------------------|
G|---------------------------------------------------------------------------|
D|-7-7-7-7-7-7-7-7-7-7-7-----------------------------------------------------|
A|-5-5-5-5-5-5-5-5-5-5-5-7-7-7-7-7-7-7-7-7-7-7-5-5-5-5-5-5-5-5-5-5-5---------|
E|-----------------------5-5-5-5-5-5-5-5-5-5-5-3-3-3-3-3-3-3-3-3-3-3---------|


Post Verse/Pre Riff:
e|---------------------------------------------------------------------------|
B|---------------------------------------------------------------------------|
G|---------------------------------------------------------------------------|
D|-------------------------------------------7-7-7-7-7-7-7-7-7---------------|
A|-9-9-9-9-9-9-9-9-9-9-9-7-7-7-7-7-7-7-7-7-7-5-5-5-5-5-5-5-5-5-5-5-5-5-5-5-5-|
E|-7-7-7-7-7-7-7-7-7-7-7-5-5-5-5-5-5-5-5-5-5-------------------3-3-3-3-3-3-3-|

e|---------------------------------------------------------------------------|
B|---------------------------------------------------------------------------|
G|---------------------------------------------------------------------------|
D|---------------------------------------------------------------------------|
A|-7-7-7-7-7-7-7-7-7---------------------------------------------------------|
E|-5-5-5-5-5-5-5-5-5---------------------------------------------------------|


Solo 2/Outro:
e|------5--5-2--2-3-2----------5--5-2--2-3-2---------5--5-2--2-2-3-2---------|
B|-3--3-----------------5-3--3----------------5--3--3----------------5-3-----|
G|---------------------------------------------------------------------------|
D|---------------------------------------------------------------------------|
A|---------------------------------------------------------------------------|
E|---------------------------------------------------------------------------|

That's the tab...during the solos on the song, it may sound like the notes get lower,
they don't it's the bass during the solo which gives that effect.
Thanks for reading this tab from an amazing song.I might make more if they don't exist... Cya. :D
Tap to rate this tab
# A B C D E F G H I J K L M N O P Q R S T U V W X Y Z