Song name
# A B C D E F G H I J K L M N O P Q R S T U V W X Y Z

The Lillingtons - Dannys Problems tab

The Lillingtons "Danny's Problem's" off of the album Shit Outta Luck

Intro
e------------------------------------------|
B------------------------------------------|
G--------------------6-66666---------------|
D-2-22-2222-2-222222-6-66666-7-77777-------|
A-2-22-2222-2-222222-4-44444-7-77777-------|
E-0-00-0000-0-000000---------5-55555-------|

Solo
e------------------------|
B------------------------|
G----------------4-2-1---|
D--2-2-2222-2222---------|
A------------------------|
E------------------------|

Chorus
e-------------------------|
B-------------------------|
G-------22222-66666-44444-|
D-22222-22222-66666-44444-|
A-22222-00000-44444-22222-|
E-00000-------------------|

intro 4x
solo 4x
intro 4x
chorus 4x
solo 4x
intro 4x
chorus 4x
solo 4x
end
Tap to rate this tab
# A B C D E F G H I J K L M N O P Q R S T U V W X Y Z