Song name
# A B C D E F G H I J K L M N O P Q R S T U V W X Y Z

The Lillingtons - Johnny tab

Johnny by The Lillingtons from the Ep I lost my Marbles

Intro
e-----------------------------------------------------------|
B-----------------------------------------------------------|
G-7~----------7~----------------777777----------------------|
D-7~-7~-9~-5~-7~-7~-9~-55555555-777777-777777-999999-555555-|
A-5~-7~-9~-5~-5~-7~-9~-55555555-555555-777777-999999-555555-|
E----5~-7~-3~----5~-7~-33333333--------555555-777777-333333-|

e-----------------------------|
B-----------------------------|
G-777777----------------------|
D-777777-777777-999999-555555-|
A-555555-777777-999999-555555-|
E--------555555-777777-333333-|

Part 2 play this at "Sitting in his room"
e------------------------------------|
B------------------------------------|
G-777777-----------------------------|
D-777777-777777-555555-4/5-55-4/5-55-|
A-555555-777777-555555-4/5-55-4/5-55-|
E--------555555-333333-2/3-33-2/3-33-|
P.M*****  *****  *****     **     **

Chorus
e-----------------------------|
B-----------------------------|
G-777777----------------------|
D-777777-777777-999999-555555-|
A-555555-777777-999999-555555-|
E--------555555-777777-333333-|

Solo
e-------------------------------------|
B-------------------------------------|
G-------------------------------------|
D---------7-77777---------5-5555-4----|
A-5-55555---------2-22222---------7-5-|
E-------------------------------------|

Ending power chords
e-------------|
B-------------|
G-7~----------|
D-7~----------|
A-5~----------|
E-------------|

Intro    1x
2nd Part 4x
Chorus   4x
2nd part 4x
Chorus   4x
Solo     4x
End
Tap to rate this tab
# A B C D E F G H I J K L M N O P Q R S T U V W X Y Z